rock
 
|tablatures   |lyrics   |discussion forums   |more tabs @ XGuitar.com

Metallica tabs

Die Die My Darling bass tab

METALLICA - DIE, DIE, MY DARLING

Tabbed by: Felix Pflaum 

It's just too easy for a Metallica-Song!

Intro:
|---------------------------------------|PLAY 3 X
|---------------------------------------|PLAY 3 X
|-2-2-2-2-2-2-2-2-----------------------|PLAY 3 X
|------------------3-3-3-3-3--2-2-2-2-2-|PLAY 3 X

FIG B
|----------------------------------------------------
|----------------------------------------------------
|---------------------------2-2--2-2-2--2-2-2--2-2-2-
|-0-0--0-0-0--0-0-0--0-0-0---------------------------

-------------------------------|PLAY FIG B X1
-------------------------------|PLAY FIG B X1
-------------------------------|PLAY FIG B X1
-0-0--0-0-0--3-3-3-3-3-3-3-3-2-|PLAY FIG B X1

FIG C
|----------------------------------------------------|PLAY 7 X
|----------------------------------------------------|PLAY 7 X
|-2-2--2-2-2--2-2-2--2-2-2--------------5-5-5--4-4-4-|PLAY 7 X
|---------------------------3-3--3-3-3---------------|PLAY 7 X

REPEAT INTRO - FIG C  NOTE: ONLY PLAY INTRO 2 X
THEN, PLAY INTRO 2X, AND FIG B 1X

|--------------------|
|--------------------|
|-2-2-2-2-2-2-2------|lET THE LAST -2- RING OUT
|--------------------|
  development and support by
dmitry ivanov