rock
 
|tablatures   |lyrics   |discussion forums   |more tabs @ XGuitar.com

Metallica tabs

Devil's Dance bass tab

Metallica
Devil's Dance
written by Hetfield and Ulrich
as performed on Reload
tab by HyapDermic@aol.com and Phil Boyle

                                   full
                                     ^
F--------------------------------------------
C--------------------------------------------
G--------------------------------------------
D-6\-0---0---0---0-3-0----0-5-3-0-3-5--------

F------------------------------------------
C------------------------------------------
G------------------------------------------
D--0---0---0---0-3-0----0-5-3-0-3-5--------
intro and similar


F------------------    ----------------------
C------------------ 4x ---------------------- 2x then back to the first
G------------------    ---------------------- part
D--0-0-0-0-3--0-0-0    -6-5-3--3-3-3-3--3-3-3

F--------------------------------
C--------------------------------
G--------------------------------
D--3-3-3-3-3-3-3--2-2-2-2-2-2-2-2
verse (follows guitar)


F---------------------------------------------
C---------------------------------------------
G--1-1-1-1-1-0-------------1-1-1-1-1-0--------
D--------------0-0-3-3-0-3-------------0-0-3-3
chorus(follows guitar)
  development and support by
dmitry ivanov