rock
 
|tablatures   |lyrics   |discussion forums   |more tabs @ XGuitar.com

Metallica tabs

Creeping Death bass tab

Metallica - Creeping Death

from Ride the Lightning



    intro

||--------------------|----------|------------------------|-----------||

||o-------------------|----------|------------------------|----------o||

||o-----------------7-|----------|-----------------7--5---|----------o||

||---0--0--0--0--0----|----------|--0--0--0--0--0---------|-----------||





||-------------------|---------|----------------------|---------------||

||o------------------|---------|----------------------|--------------o||

||o----------------7-|---------|----------------7--5--|------5-------o||

||--0--0--0--0--0----|---------|-0--0--0--0--0--------|---------------||



                                                             play 4x->

|-----------|--------|--------|-16--17--16\-||-------------------------|

|-----------|--------|--------|-------------||o------------------------|

|-----------|--------|--------|-------------||o------------------------|

|--5--3--2--|---0----|--------|-------------||---0--0--0--0--0--0--0--0|





|-------------------------||

|------------------------o||

|-------------2--3--2--0-o||

|-0--0--0--0--------------||



                    play 4x

||---------------------|-------------------------||

||o--------------------|------------------------o||

||o--------------------|------------------------o||

||---0--0--3--0--0--3--|-0--0--2--2--2--2--2--2--||





||--------------------------|--------------------------||

||o-------------------------|-------------------------o||

||o-------------------------|-------------2--3--2--0--o||

||---0--0--0--0--0--0--0--0-|-0--0--0--0---------------||





Verses

||--------------------------|------------------------|------------------

||o-------------------------|------------------------|------------------

||o-------------------------|-------------2--3--2--0-|------------------

||---0--0--0--0--0--0--0--0-|-0--0--0--0-------------|-0--0--0--0--0--0-





-------|------------------------|------------------------|------------------------|

-------|------------------------|------------------------|------------------------|

-------|-------------2--3--2--0-|------------------------|-------------2--3--2--0-|

--0--0-|-0--0--0--0-------------|-0--0--0--0--0--0--0--0-|-0--0--0--0-------------|





|-----------------------|------------------------|

|-----------------------|------------------------|

|-----------------------|-------------2--3--2--0-|

|0--0--0--0--0--0--0--0-|-0--0--0--0-------------|





|-----------------------|------------------------|

|-----------------------|------------------------|

|-----------------------|-------------2--3--2--0-|

|0--0--0--0--0--0--0--0-|-0--0--0--0-------------|





|-----------------------|------------------------|

|-----------------------|------------------------|

|-----------------------|-------------2--3--2--0-|

|0--0--0--0--0--0--0--0-|-0--0--0--0-------------|





|-----------------------|------------------------|

|-----------------------|------------------------|

|-----------------------|-------------2--3--2--0-|

|0--0--0--0--0--0--0--0-|-0--0--0--0-------------|





|-----------------------|------------------------|

|-----------------------|------------------------|

|-----------------------|-------------2--3--2--0-|

|0--0--0--0--0--0--0--0-|-0--0--0--0-------------|





|------------------|------------------------|--------------------------|

|------------------|------------------------|--------------------------|

|------------------|------------------------|--------------------------|

|-0--0--3--0--0--3-|-0--0--2--2--2--2--2--2-|-0--0--3--0--0--3---------|





|------------------------|------------------|

|------------------------|------------------|

|------------------------|------------------|

|-0--0--2--2--2--2--2--2-|-0--0--3--0--0--3-|





|------------------------|------------------|

|------------------------|------------------|

|------------------------|------------------|

|-0--0--2--2--2--2--2--2-|-0--0--3--0--0--3-|





Chorus

|-------------------|------------------|------------------|-------------

|-------------------|------------------|------------------|-------------

|-------------------|-------------3--5-|-5--5--5--5--5--5-|-------------

|--0--0--0--0--0--0-|-0--0--0--0-------|------------------|-1--1--1--1--





------------|------------------|------------------|--------------------|

------------|------------------|------------------|--------------------|

------------|------------------|-------------3--5-|-5--5--5--5--5--5---|

--3--3--3\--|-0--0--0--0--0--0-|-0--0--0--0-------|--------------------|





|------------------|------------------|------------------|--------------

|------------------|------------------|------------------|--------------

|-5--5--5--5--8--8-|-7--7--7--7--7--7-|-7--7--7--7--8--8-|-5--5--5--5--5

|------------------|------------------|------------------|--------------





----|------------|------------------------|----------------------------|

----|------------|------------------------|----------------------------|

-5--|-5--2--4----|------------------------|-------------2--3--2--0-----|

----|----------2-|-0--0--0--0--0--0--0--0-|-0--0--0--0-----------------|





|------------------------|------------------------|--------------------|

|------------------------|------------------------|--------------------|

|------------------------|-------------2--3--2--0-|----7--------7------|

|-0--0--0--0--0--0--0--0-|-0--0--0--0-------------|-0-----0--0-----0---|





|------------------|---------------------|---------------||

|------------------|---------------------|--------------o||

|-7--5----7--5--7--|-5--7--5-----4----0--|-2--2--4------o||

|------------------|---------------------|----------2----||







Guitar Solo

||------------------------|------------------------|--------------------

||o-----------------------|------------------------|--------------------

||o-----------------------|-------------2--3--2--0-|-0--0--0--0--0--0---

||-0--0--0--0--0--0--0--0-|-0--0--0--0-------------|--------------------



  play 4x                                                 play 4x

-------|-------------------||--------------------|-----------------------||

-------|------------------o||o-------------------|----------------------o||

--0--0-|-0--0--0--0--0--3-o||o-------------------|----------------------o||

-------|-------------------||---0--0--3--0--0--3-|-0--0--2--2--2--2--2-2-||





|------------------|------------------|------------------|--------------

|------------------|------------------|------------------|--------------

|------------------|-------------3--5-|-5--5--5--5--5--5-|-5--5--5--5---

|-0--0--0--0--0--0-|-0--0--0--0-------|------------------|--------------





--------|------------------|------------------|------------------------|

--------|------------------|------------------|------------------------|

--8--8--|-7--7--7--7--7--7-|-7--7--7--7--3--5-|-5--5--5--5--5--5-------|

--------|------------------|------------------|------------------------|





|----------------------|------------------|----------------------------|

|----------------------|------------------|----------------------------|

|----------------------|------------------|-------------3--5-----------|

|-1--1--1--1--3--3--3\-|-0--0--0--0--0--0-|-0--0--0--0-----------------|







|------------------|------------------|------------------|--------------

|------------------|------------------|------------------|--------------

|-5--5--5--5--5--5-|-5--5--5--5--8--8-|-7--7--7--7--7--7-|-7--7--7--7---

|------------------|------------------|------------------|--------------





-------|------------------|--------------|-----------------------------|

-------|------------------|--------------|-----------------------------|

--3--5-|-5--5--5--5--5--5-|--5--2--4-----|-----------------------------|

-------|------------------|-----------2--|-----0-----------------------|





Bridge

||---------------|------------|-----------------|---------------------||

||o--------------|------------|-----------------|--------------------o||

||o---7--7--7--7-|-8--8--8--5-|-7---------------|--------------------o||

||-0-------------|------------|------0--0--0--0-|-3--3--3--1--1-------||





Die...              play 4x

||---------------------|-------------|---------------|----------------||

||o--------------------|-------------|---------------|---------------o||

||o--------7--7--7--7--|-8--8--8--5--|-7-------------|---------------o||

||----0----------------|-------------|----0--0--0--0-|-3--3--3--1--1--||





|------------|-------------------|

|------------|-------------------|

|------------|-----------5--5\---|

|-0----------|--0--1--3----------|





||-----------------------------|------------------|---------------------|

||o-----------------------2----|------------------|--------------------3|

||o-----------------------2----|------------------|--------------------3|

||----0--0--0--0--0--0--0------|-0--0--0--0--3--2-|-0--0--0--0--0--0--0-|





|--------------------||

|-------------------o||

|-3--3--3--3--5--5--o||

|--------------------||



                                              1.2.              3.

||----------------------------|-------------|-----------------|---------||

||o---------------------------|-------------|-----------------|--------o||

||o-------------7--5-----3--2-|-------------|--3---2---0---3--|--------o||

||--0--0----------------------|-------------|-----------------|---------||





||--------------------|--------|---------------------|----------------||

||o-------------------|--------|---------------------|---------------o||

||o-----------------7-|--------|----------------7--5-|---------------o||

||---0--0--0--0--0----|--------|-0--0--0--0--0-------|----------------||





||--------------------|--------|----------------------|---------------||

||o-------------------|--------|----------------------|--------------o||

||o-----------------7-|---7----|----------------7--5--|------5-------o||

||---0--0--0--0--0----|--------|-0--0--0--0--0--------|---------------||



                        tremolo picking==============================

|----------------------|-----------------------------------------------|

|----------------------|-----------------------------------------------|

|----------------------|-----------------------------------------------|

|----5------3------2---|---0----0----0---0--0---0----0-----0-----------|





=======================================================================

h = hammeron                    Judy Letostak

p = pulloff                     Internet letostak@ix.netcom.com

/\ = slide                      Fidonet 1:202/762

x = ghost note                  MetalNet 182:100/2

t = tap (right hand)            The Music Shop BBS (619)423-4970 24hrs

~ = vibrato                     * = picked harmonic

bf = bend full                  tr = trill

rb = release bend               p.s. = pick scrape

dive = dive with bar            b = bend / step written over note

========================================================================

The Music Shop BBS (619)423-4970  24hrs

Guitar Tab, Bass Tab, Lyrics, Sound Files, Pictures, BRE...LORD...FidoNet...

MetalNet...In a band?  Want some exposure?  I have a file area for bands

will take anything that can be put on a computer...Lyrics, pictures, sound

files, gig ads...email me or call my bbs.  It's free, and access is free.

Also have a menu for band to put up Biographies, reviews of shows, demos,

gig advertisements, and you can sell your demo/CD here as well...And it's

absolutely FREE!
  development and support by
dmitry ivanov