rock
 
|tablatures   |lyrics   |discussion forums   |more tabs @ XGuitar.com

Metallica tabs

Crash Course In Brain Surgery bass tab

                          Crash Course in Brain Surgery
                                  by Metallica
                           transcribed by Travis HIggins

dropped D
tuned low to high (D,A,D,G)

Intro play 4 times
||---------------------5--6--|--7---------------------||------------------------
||*-----------5--6--7--------|-----5--6--7--5--6--7--*||------------------------
||*--5--6--7-----------------|-----------------------*||------------------------
||---------------------------|------------------------||------------------------


                             4x
||----------------------------||-----------------|------------------------------
||*--------------------------*||-----------------|------------------------------
||*--------------------------*||--7--5-----2--0--|------------------------------
||---0--2-----2-----2-----2---||-----------------|--5--2-----0--1---------------



||----------------------------||-----------------|------------------------------
||*--------------------------*||-----------------|------------------------------
||*--------------------------*||--7--5-----2--0--|------------------------------
||---0--2-----2-----2-----2---||-----------------|--5--2-----0--1---------------


                             4x    1st and 2nd verses      12x
||----------------------------||----------------------------||--------------
||*--------------------------*||*--------------------------*||--------------
||*--------------------------*||*--------------------------*||--------------
||---0--2-----2-----2-----2---||----0h2-----2-----2-----2---||--------------



-----------------------|-------------------------|-------------------------|----
-----------------------|-------------------------|-------------------------|----
-----------------------|-------------------------|-------------------------|----
3h5-----5-----5-----5--|--3h5-----5-----5-----5--|--3h5-----5-----5-----5--|----



------------|------------------------------|------------------------------------
------------|--12--12--12--12--12--12--12--|------------------------------------
------------|------------------------------|------------------------------------
3--0--------|------------------------------|------------------------------------


                             4x
||------------------------------||-----
||*----------------------------*||-----
||*----------------------------*||-----
||------0h2-----2-----2-----2---||-----



Repeat for 2nd verse


  Interlude
|------------------|-
|------------------|-
|---7--5-----2--0--|-
|------------------|-


                                            4x
---------------||----------------------------||-----------------|---------------
---------------||*--------------------------*||-----------------|---------------
---------------||*--------------------------*||--7--5-----------|---------------
5--2-----0--1--||---0--2-----2-----2-----2---||-----------9--7--|---------------



---------|-----|-----|-----|-----|--------|-------------------------------------
---------|-----|-----|-----|-----|--------|-------------------------------------
---------|-----|-----|-----|-----|--------|-------------------------------------
5--2-----|--0--|--1--|--2--|--2--|--0--2--|--2--2-------------------------------


     guitar solo             8x
||----------------------------||--------------|---------------------------------
||*--------------------------*||--5--3--------|---------------------------------
||*--------------------------*||--------5--3--|--1------------------------------
||----3h5-----5-----5-----5---||--------------|-----5--0--1---------------------


                            8x
||---------------------------||-----------------|--------------|----------------
||*-------------------------*||-----------------|--------------|----------------
||*-------------------------*||--7--5-----2--0--|--------------|----------------
||---0h2-----2-----2-----2---||-----------------|--5--2-----0--|----------------


bass solo
-------------------------|-----------------------|------------------------------
-------------------------|-----------------------|------------------------------
-------------------------|-----------------------|------------------------------
-5--7--5--7--5--7-----5--|--0--2--0--2--0--5--0--|------------------------------



------------------------|--------------------|--------------------------|-------
------------------------|-----0--2--0--------|--------------------------|-------
------------------------|--------------2-----|--------------------------|-------
5--7--5--7--5--7-----5--|--2--------------2--|--5--7--5--7--5--7-----5--|-------



---------------------|--------------------------|-----------------------|-------
---------------------|--2--1--0-----------------|-----------------------|-------
------------------2--|-----------2--1--0-----0--|-----------------------|-------
0--2--0--2--0--2-----|--------------------------|--0--2--0--2--0--5-----|-------



------------------|-----------------------|-------------------------------------
------5-----------|--------5--------------|-------------------------------------
5--7-----0--2--5--|--5--7-----7--0--2--5--|-------------------------------------
------------------|-----------------------|-------------------------------------


for the 3rd verse...repeat riffs from other verses


That's about it....it's a pretty fun song to play, with a lot of
little bass solos.  The bass really carries the song.
  development and support by
dmitry ivanov