rock
 
|tablatures   |lyrics   |discussion forums   |more tabs @ XGuitar.com

Metallica tabs

Bleeding Me bass tab

Metallica
Bleeding Me
written by Hetfield, Ulrich & Hammett
as performed on Load
TRANSCRIBED BY: STEVE GORENBERG


  GUITAR
|-----------|-----------------------------------------------------------
|-----------|---------------------------------------------7-------------
|-----------|-5/10-----9H10--9\7----------------------7/9---10\7--------
|-----------|---------------------0---(0)--(0)--(0)---------------0--(0)

------------------------------------------------------------------------
----------------------------------------------------------------------7-
--7------/10--10--10--9H10P9\----7-----------------7--------------7/9---
------0--------------------------0------0----(0)---------0---(0)--------

-------------------------------------------------|
-------------------------------------------------|
---10\7------------7-------/10---10--10--9H10P9\-|
---------0---(0)-------0-------------------------|

 1,2 VERSES
|-----------------------------------------------------------------------
|-----------------------------------------------------------------------
|-\7\-----0----------------0------5------------0-----------0----0-------
|-------0---0------(0)---0----2/3---3-(3)\2--0---0--(0)--0---/2---3--(3)

------------------------------------------------------------------------
------------------------------------------------------------------------
----0--------------0-----5-----------0-------------------------------0--
--0---0-----(0)--0---2/3---3--3\2--0---0--0-0-0--/3--3--2H3--2\1-0-0--0-

------------------------------------------------------------------------
------------------------------------------------------------------------
---------0-----5-------------0-------------0----0------------0----------
--(0)--0---2/3---3--(3)\2--0---0----(0)--0---/2---3--(3)\--0---0---(0)--

------------------------------------------------------------------------
-------------------------------------------------------------------7-7--
---0-----5-----------0---------------------------7-7---7-7---7\0H2/5-5--
-0---2/3---3--3\2--0---0--0-0-/3-3-3-3-2H3-2-2---0-0-X-0-0-X-0----------

------------------------------------------------------------------------
---7-7---7\-----7-7---7-7---7\------------------------------------------
-X-5-5-X-5\-0H2/5-5-X-5-5-X-5\-5/7---7-7\--2-5--5/7---7-7---7-7---7\0H2-
-------------------------------0---X-0-0--------0---X-0-0-X-0-0-X-0-----

------------------------------------------------------------------------
-7-7---7-7---7\-----7-7---7-7----------------------------7-7---7-7--(7)-
-5-5-X-5-5-X-5\-0H2/5-5-X-5-5-5-3\2-0--------------------5-5-X-5-5--(5)-
---------------------------------------5-5-5---5-5-5---3----------------

                           CHORUS   (BASS FIG 1)
-------------------------|----------------------------------------------
-------------------------|----------------------------------------------
-------------------------|-2---2---2------5--5--5------5---5--5--5----5-
-5---5-5-5-5-5-5---5-5-3\|-0-0-0-0-0---3/-5--5--5---3/-5---5--5--5----5-

------------------------------------------------------------------------
------------------------------------------------------------------------
--7---7-7-7----------2---2---2-----5---5---5------5---5---5---5---5-7--7
--5---5-5-5-0-3-(3)\-0-0-0-0-0---3/5---5---5---3/-5---5---5---5---5-7--5

------------------------------------------------------------------------
------------------------------------------------------------------------
---7--7--7--------2---2/3\2-0-5--5--5----5--5--5--5---5-7---7--7--7-----
---5--5--5-0-3-3\-0-0-0-------3--3--3--3/5--5--5--5---5-5---5--5--5-0-3-

                                                        END FIG 1
------------------------------------------------------------------------
------------------------------------------------------------------------
-----2---2---2/3\2-0--5---5---5-----5---5--5--5---5-7---7--7--7---------
-(3)-0-0-0-0-0--------5---5---5---3/5---5--5--5---5-5---5--5--5-0-3-(3)-


------------------------------------------------------------------------
---------------------7--7---7--7---7\------7--7---7--7--(7)\------------
-7--7---7--7---7\0H2/5--5-X-5--5-X-5\-0H2/-5--5-X-5--5--(5)\-7----------
-0--0-X-0--0-X-0---------------------------------------------0--0-0-0-0-

------------------------------------------------------------------------
-------------------------------------7--7---7--7---7\-----7--7---7--7---
---7\0-2-2-5-5-5/7---7-7----7--7\0H2-5--5-X-5--5-X-5\-0H2/5--5-X-5--5---
-0-0-----------0---X-0--0-X-0--0----------------------------------------

---------------------|
---------------------|
-7\------------------|
-5\-5---5-5--5-5-5-3-|

  INTERLUDE
|-----------------------------------------------------------------------
|----------------------------------------------------7------------------
|-7-----------------------7--------------------7/9------10\--7----------
|-0-------0------(0)--------------0-----(0)----------------------0--(0)-

---------------|--------------------------------------------------------
---------------|--------------------------------------------------------
------7--------|--/10--10-10-9H10P9\-/10--10-10-9-10-9\--7--7--7--7--7--
------------0--|-----------------------------------------5--5--5--5--5--

                                                          (GUITAR)
------------------------------------------------------|----------------|
------------------------------------------------------|----------------|
------------------------------------------------------|----------------|
-0--3----0---------(0)-----------(0)------------(0)---|----------------|

                                 BASS FIG 2               END FIG 2
|-----------------------------|----------------------------------------|
|-----------------------------|----------------------------------------|
|-----------------------------|------------------------------------3---|
|-12\0--12-12-12\-12-12-10H12-|-0--0-0-0--2--0----5-0----3-0-5-0-3---3-|

  BRIDGE W/ BASS FIG 2 (4X'S)

  CHORUS W/ BASS FIG 1

  GUITAR SOLO
|-----------------|----^-|----@-|----^-|----%-|----&-|
|-----------------|---%--|---#--|---*--|---$--|---*--|
|-----------------|--^---|--%---|--&---|--#---|--$---|
|-0-0-0-0-0-0-0-0-|-%----|-&----|-#----|-@----|-@----|

|-----------------------------------------------------------------------
|-----------------------------------------------------------------------
|-------------------------------0-2--2-2-2-2-2-3--0-0--0-3-3-0-2--2-2-2-
|-0-0-0-0-0-0-0-0-0-0-0-0-0-0-0-----------------------------------------

------------------------|
------------------------|
-2-2-3---0-0----0-5-5/7-|
------------------------|

      BASS FIG 2 (4X's)

      BASS FIG 1
                              GUITAR
|--------------------------|----------|---------------------------------
|--------------------------|----------|---------------------------------
|-----10--10--10--9--10--9-|----------|-5/10--10--10--9H10--9\7---------
|-0------------------------|----------|-----------------------------7---

------------------------------------------------------------------------
--------------------------------------7---------------------------------
----------7----------------------7/9-----10\7---------------------------
--0---------------0-------0----------------------------0--------------0-

------------------------------------------------------------------------
------------------------------------------------------------------------
-------7-------/10---10---9H10--9\7---------------------7---------------
-----------0---------------------------0--------0---------------0-------

------------------------------------------------------------------------
-----------------------7------------------------------------------------
----------------7/9--------10\7----------------------------7------------
--------0--------------------------7-------------0----------------------

--------------------------------------------------|
--------------------------------------------------|
------------/10----10--10--9--10--9---7-------(7)-|
----0---------------------------------0-------(0)-|
  development and support by
dmitry ivanov