rock
 
|tablatures   |lyrics   |discussion forums   |more tabs @ XGuitar.com

Metallica tabs

And Justice For All -full album guitar tab

 .......And Justice For All     By: Metallica

Metallica's online site: http://www.metclub.com
Please note this book does not have 2 songs: The Frayed Ends of Sanity and Dyers Eve.  Every other song is in here.
Please note that this book was created by many people the pasting was done by Brian E  Site holder of
http://home.sprynet.com/sprynet/puck916
The tablature is as close as possible by the makers.  This book would like to Thank the people who made the tab.  If any of them would like this book to be taken out of publication e mail me at puck916@sprynet.com
This book May not be sold it is to be freely distributed by anybody it is 44 pages long.  Well here it is down below.

#
From: bu345@cleveland.Freenet.Edu (Matt Holliman)


(Thanks to Vassilis Tzerpos, bpatr@theseas.ntua.gr, for typing up the
solo!  I think this is most of the song, more or less.)


Intro. (two gtrs.):                      (Gtr. II shown on right)
E|-14-15h17p15-17b(18)r(17)-17b(18)r(17)-17\15-15-17\15-15-9\7-7------------|
B|-16-17h19p17-19b(20)r(19)-19b(20)r(19)-19\17-17-19\17-17-------12\10|7----|
G|--------------------------------------------------------------------------|
D|--------------------------------------------------------11\9-9------------|
A|--------------------------------------------------------------------------|
E|--------------------------------------------------------------------------|

E|-------------------------------------------------------------------|
B|-8-10|7-12-10|7\8|5-8|5-10|7\8|5-8|5-/12-12-12-12\10|7-8-10|7-12|8-|
G|-9-------9---------------------------------------------9-----------|
D|---------------------------------------9-10--9---------------------|
A|-------------------------------------------------------------------|
E|-------------------------------------------------------------------|

E|----------------------------------------------------------------------|
B|-10|7\8|5-8|5-10|7\8|5-8|5-\0-4-5h7p5-7-(7)b(8)r(7)-10|7\5-5-10|7\5-5-|
G|----------------------------------------------------------------------|
D|----------------------------------------------------------------------|
A|----------------------------------------------------------------------|
E|----------------------------------------------------------------------|

Tempo=182           Rhy. Fig. 1                        play three times
E|-----------------|---------------------------------------------------|
B|-----------------|*-------------------------------------------------*|
G|-----------------|*-------------------------------------------------*|
D|-2-------------2-|-------------------3-------------------------------|
A|---------3-4-5---|-2--2--2-3-2--2--2---2--2--2--2-3-2--2-------3-4-5-|
E|---2-3-4---------|---------------------------------------2-3-4-------|

E|--------------------------------------|
B|--------------------------------------|
G|-------------------3------------------|
D|-2--2--2-3-2--2--2---2-5--5-5-5---4-4-|
A|-----------------------5--5-5-5---4-4-|
E|-----------------------3--3-3-3-0-2-2-|

                                    play four times
E|---------------------------------------------------|
B|*-------------------------------------------------*|
G|*------------------3------------------------------*|
D|-2--2--2-3-2--2--2---2--2--2--2-3-2--2-------3-4-5-|
A|---------------------------------------2-3-4-------|
E|---------------------------------------------------|

 Rhy. Fig. 2 (play 4 times)
|-------------------------------|
|*-----------------------------*|
|*-----------------------------*|
|-------------------------------|
|-------------------------------|
|-0-0-0-0-0-0-6-0-0-7-6-3-------|


"Opposition, contradiction" etc.     Tempo=128
Rhy. Fig. 3
E|------------------------------------------------------|
B|*-----------------------------------------------------|
G|*---------------------------------------------------8-|
D|-------2-------------3-2----------------2-----------8-|
A|---0-1-----------0-1----------------0-1-------------6-|
E|-0-------0-0-0-0---------0-0-0-0--0-------0-0-0-0-6---|

E|------------------------------------------------------| (End Fig. 3)
B|-----------------------------------------------------*|
G|--------------------3------------------------------8-*|
D|-------2---------2----2----------------2-----------8--|
A|---0-1-------------1---------------0-1-------------6--|
E|-0-------0-0-0-0--------0-0-0-0--0-------0-0-0-0-6----|


Solo:
t = tap	^ = bend	\/= use tremolo bar	<>= harmonics

|---------------------------------------------|
|*--------------------------------------------|
|*--------------------------------------------|
|------7-9-------7-9-------7-9--10/7--9h10p9--|
|-10/7-9-10-10/7-9-10-10/7-9-10------10h12p10-|
|---------------------------------------------|

|-------------------------------------------------|
|------------------------------------------------*|
|----------------7-9-------7-9--11--9h11p9-------*|
|------7-9-------9-10-10/7-9-10-12-10h12p10-9--7--|
|-10/7-9-10-10/7----------------------------10-9--|
|-------------------------------------------------|

|-------------------------------------------|
|-------------------------------------------|
|------7-9-------7-9-------7-9--11--9h11p9--|
|-10/7-9-10-10/7-9-10-10/7-9-10-12-10h12p10-|
|-------------------------------------------|
|-------------------------------------------|

|------------------------------------------|
|----------------7-8----7-8-10-8h10p8-7----|
|------7-9-------7-9-9--7-9-11-9h11p9-7-9--|
|-10/7-9-10-10/7-----10-----------------10-|
|------------------------------------------|
|------------------------------------------|

|-----------------------------------------------7--------7-8--7h8p7----------|
|----7-8----7-8----7-8-10-8h10p8----7-8----10/7-8-8-10/7-8-10-8h10p8-8-10/7--|
|-9--7-9-9--7-9-9--7-9-11-9h11p9-9--7-9-9---------9------------------9-------|
|-10-----10-----10---------------10-----10-----------------------------------|
|----------------------------------------------------------------------------|
|----------------------------------------------------------------------------|

|-------------------------------7-8-8-7----7---------------------------------|
|-8---7-8---7-8---7-8---7-8---7---------10---10-8-10-8-7-8-7---7-------------|
|-9/9-----9-----9-----9-----9--------------------------------9---9-7-9-7-6-7-|
|----------------------------------------------------------------------------|
|----------------------------------------------------------------------------|
|----------------------------------------------------------------------------|

|---------------------------------------7-9-7h9p7----7-9-10-12-12|10-9-7----7-|
|--------------------7-8-7h8p7---7-8-11-----------11---------------------11---|
|6-----6h7p6---6-7-9-----------9----------------------------------------------|
|--7-9-------9----------------------------------------------------------------|
|-----------------------------------------------------------------------------|
|-----------------------------------------------------------------------------|

|-9-10-12-9-t19p12-t19p10-t19p10p9-t18p10-t18p8-t18p8p7----------------------|
|-------------------------------------------------------t17p8-t17p7-t17p7p5--|
|----------------------------------------------------------------------------|
|----------------------------------------------------------------------------|
|----------------------------------------------------------------------------|
|----------------------------------------------------------------------------|

|---------------------------------------------------|
|-t17p8-t17p7-t17p7p5-t17p8p7-t17p8p7-t17p8p7p5s3s5-|
|---------------------------------------------------|
|---------------------------------------------------|
|---------------------------------------------------|
|---------------------------------------------------|

|-12^-12^-12^-rp10-12-10h12p10-9-10-9|10-9-7-6-19^-19^-r-18-15-14-15-15p14---|
|-10^-10^-10^-rp8--10--8h10p8--7-8--7|8--7-----17^-17^-r-16-13-12-13-13p12---|
|------------------------------------------9-8-------------------------------|
|----------------------------------------------------------------------------|
|----------------------------------------------------------------------------|
|----------------------------------------------------------------------------|

|----15p14----s12-14-18-14-12-18-14-12-18-14-12-18-14-12-18-14-12-18-14-12-|
|-17-13p12-15----------------------------------------------------------------|
|-14-------12----------------------------------------------------------------|
|----------------------------------------------------------------------------|
|----------------------------------------------------------------------------|
|----------------------------------------------------------------------------|

|-18-14-12-18-14-12-18-14-12-18-14-12--19----------------------------------|
|--------------------------------------------------------------------------|
|--------------------------------------------------------------------------|
|------------------------------------------5--5-5-5---4-4--5--5-5-5---4-4--|
|------------------------------------------5--5-5-5---4-4--5--5-5-5---4-4--|
|------------------------------------------3--3-3-3-0-2-2--3--3-3-3-0-2-2--|

|------------s18-19-24-22-20-19-23-21-19-17-20-19-17-15-19-17-15-14-14-17--|
|-------13^----------------------------------------------------------------|
|-------13^----------------------------------------------------------------|
|-3-3----------------------------------------------------------------------|
|-3-3----------------------------------------------------------------------|
|-1-1----------------------------------------------------------------------|

|-17p15-14-12-11-12-15-14-12-10-9-10-9-10-14-12-10-9-8-9-12-10-8-7---------|
|------------------------------------------------------------------10^-10^-|
|--------------------------------------------------------------------------|
|--------------------------------------------------------------------------|
|--------------------------------------------------------------------------|
|--------------------------------------------------------------------------|

|--------------------------------------------------------------------------|
|-12p10-8-7---7-8-7---7-----------7---------0---0---------0-\/--12---------|
|-----------9-------9---9-7-9---7---9-7---9---7---2-------------12---------|
|---------------------------------------9-----------4-2-0-------12---------|
|--------------------------------------------------------------------------|
|--------------------------------------------------------------------------|

|--------------------------------------------7h8p7----7-8-8h10h12-12-10-8-7--|
|-----------------------------7-8-7---7-8-10-------10------------------------|
|-7h9-7----5h7-5-4-5-4-----s9-------9----------------------------------------|
|-------10-------------4-----------------------------------------------------|
|----------------------------------------------------------------------------|
|----------------------------------------------------------------------------|

|-----------7--------------------------------------------------------|
|-------------10p8-7-<5>-\/------------------------------------------|
|-9-7--7-5-----------<5>-\/--12p0-12p0-12p0-12p0-12p0-12p0-11p0-11p0-|
|-9-7--7-5-----------------------------------------------------------|
|--------------------------------------------------------------------|
|--------------------------------------------------------------------|

|-------------------------------------------------------------------------|
|-------------------------------------------------------------------------|
|-9p0-9p0-9p0-9p0-9p0-9p0-9p0-9p0-16p0-16p0-16p0-16p0-16p0-16p0-14p0-14p0-|
|-------------------------------------------------------------------------|
|-------------------------------------------------------------------------|
|-------------------------------------------------------------------------|

|----------------------------------------------------------------------------|
|----------------------------------------------------------------------------|
|-12p0-12p0-12p0-12p0-12p0-12p0-12p0-12p0-2p0-2p0-2h4p0-4p0-5p0-5p0-4p0-4p0--|
|----------------------------------------------------------------------------|
|----------------------------------------------------------------------------|
|----------------------------------------------------------------------------|

|--------------------------------------------------|
|--------------------------------------------------|
|-5p0-5p0-7p0-7p0-9p0-9p0-9p0-9p0-(5)-\/--\/--\/---|
|---------------------------------(5)-\/--\/--\/---|
|--------------------------------------------------|
|--------------------------------------------------|



I'd love to see the Four Horsemen solo too... is anyone willing to type
that up?  Thanks...

--
Matt Holliman, slayer@imsa.edu    "You cannot hide the face of death,
                                   oppression ruled by bloodshed"
                                               -- BLOOD RED by SLAYER


From: tahuq@bucknell.edu (Timi Hendrix)
Subject: TAB: Metallica's Blackened

Okay, For Blackened. This is a little rough sketch... I assume you are familiar
with it... here goes.


x - percussive mute


After intro. (see previous post).


fast

riff 1 (7/4) time
  note: the last phrase (3-4-5), 3 & 4 are 16th notes. All other notes are 8th's
||-------------------------------|---------------------------------------------||
||-------------------------------|---------------------------------------------||
||---------------------------3---|---------------------------------------------||
||---x-2-x-2-x-2-3-2-x-2-x-2---2-|-x-2-x-2-x-2-3-2-2---------------------------||
||-------------------------------|-------------------------3-4-5---------------||
||-------------------------------|-------------------2-3-4---------------------||


I. repeat riff 1 (3 times) then


||-------------------------------|---------------------------------------------||
||-------------------------------|---------------------------------------------||
||---------------------------3---|---------------------------------------------||
||---x-2-x-2-x-2-3-2-x-2-x-2---2-|---------------------------------------------||
||-------------------------------|---5--5-5-5---4-4------5--5-5-5---4-4--------||
||-------------------------------|---3--3-3-3-0-2-2------3--3-3-3-0-2-2--------||


II. repeat riff 1 (4 times) then III.


riff 2 (6/4) time, used during the verses.
  note: all eighth notes

||-----------------------------||
||-----------------------------||
||-----------------------------||
||-----------------------------||
||-----------------------------||
||---0-0-0-0-0-0-6-0-0-7-6-3---||


III. repeat riff 2 (4 times)  then IV.


riff 3 (6/4) time, used during verses
  note: all eighth notes

||-----------------------------||
||-----------------------------||
||-----------------------------||
||-----------------------------||
||-----------------------------||
||---3-3-3-3-3-3-6-3-3-7-6-3---||


IV. verses: riff 2 (3 times) then riff 3 (1 time)   <----play IV. twice.


V. then riff 1 then


||-------------------------------|       |-------------||
||-------------------------------|   one |-------------||
||---------------------------3---|   bar |-------------||
||---x-2-x-2-x-2-3-2-x-2-x-2---2-|    of |-------------||
||-------------------------------|  (2/4)|---2-2-2-2---||
||-------------------------------|       |---0-0-0-0---||


VI. chorus
      not sure where the bar lines should be. it's in (4/4) time

||-------------------------------------------------------------||
||-------------------------------------------------------------||
||-------------------------------------------------------------||
||---9----------7-----5--5--5--4-------------------------------||
||---7----------5-----3--3--3--4---------------5-5-5---4-4-4---||
||---0------0-0---0-0----------2---------------3-3-3---2-2-2---||

||----------------------------------------------------------------------------||
||----------------------------------------------------------------------------||
||----------------------------------------------------------------------------||
||---2----------7-----5--5--5--4----------------------------------------------||
||---2----------5-----3--3--3--4-----------5--5-5-5---4-4----5--5-5-5---4-4---||
||---0------0-0---0-0----------2-----------3--3-3-3-0-2-2----3--3-3-3-0-2-2---||

VII. play riff 1 (2 times) then repeat IV., V., and VI. then play an F5th and
     then an E5th.

     this is enough for right now. I will send or post the rest later.
                      Timi Hendrix.

------------------------------
From: bprenike@socs.uts.EDU.AU (Brett Phillip Renike)

Here's Metallica's ...And Justice For All.
I've tabbed it from memory, so if anyone could fix up the mistakes
and the parts I can't remember, please do so.

                     ...And Justice For All
                           Metallica

 Intro: (clean)
|----------------------------------------------|
|----------------------------------------------|
|.---------------------------------------------|
|.-6-7-9---7-6h7p6-4-5-5-4-7-4-2-3-5---3-2h3p2-|
|--7-----7---------5-----5---5-3-----3---------|
|--0-------------------------------------------|

                        (x 5)
|----------------------------|
|----------------------------| 3rd and 4th times
|-----------------------2---.|     play this with distortion
|-0-2-2-0-2-0-0-2-2-0-2---3-.| I can't remember how Gtr. 2 goes
|-2-----2---2-1-----1-----1--| 5th time play all distorted
|----------------------------|

 Riff 1:
|------------------------------|--------------------------|
|-.----------------------------|--------------------------|
|-3----.-.----.-.-.----.-.-.-.-|-5-3-2---3-2-----2--------|
|-3----8-7----8-7-6----8-7-6-5-|-5-3-2-5-3-2-5-3-2-5-3-2--|
|-1----8-7----8-7-6----8-7-6-5-|-------5-----5-3---5-3-2--|
|------6-5----6-5-4----6-5-4-3-|--------------------------|

|---------------------------------|
|---------------------------------|
|--2------------------------------|
|--2--5--3--2----5-3-2---2--------|
|-----5--3--2----5-3-2-5-2-5-3-2--|
|----------------------5---5-3-2--|

 Riff 2                                                         (x 4)
|--------------------------------|-----------------------------------|
|--------------------------------|-----------------------------------|
|--------------------------------|.---------------------------------.|
|-2------------------------(2)---|.-(2)-------------------------(2)-.|
|-2------------------------(2)---|--(2)-------------------------(2)--|
|-0------------------------(0)---|--(0)-------------------------(0)--|

 Riff 3: (x 4)
|------------------------------------------------|
|------------------------------------------------|
|-.-.----.-.------------------.-.----------------|
|-8-8-7--8-8-7---------------8-8-7---------------|
|-8-8-7--8-8-7----5h7-7-5----8-8-7----5h7-7-5----|
|-6-6-5--6-6-5--0---------7--6-6-5--0---------7--|

 Riff 4:
|-------------------------|-----------|-----------|-----------|
|-------------------------|-----------|-----------|-----------|
|-.-.----.-.--------------|-2---------|-----------|-2---------|
|-8-8-7--8-8-7--2---------|-2---------|-2---------|-2---------|
|-8-8-7--8-8-7--2---------|-0---------|-2---------|-0---------|
|-6-6-5--6-6-5--0---------|-----------|-0---------|-----------|

Riff 3 (x 2)

 Riff 5:
|-------------------------------------------------|
|-------------------------------------------------|
|-.-.----.-.------.----.--------------.----.------|
|-8-8-7--5-5-4----2--x-2-2-------3----2--x-2--2---|
|-8-8-7--5-5-4--.-2--x-2-2---.-.-3--.-2--x-2--2---|
|-6-6-5--3-3-2--0-0--x-0-0---0-0-1--0-0--x-0--0---|

|---------------------------------------------------------------|
|---------------------------------------------------------------|
|-.-.----.-.------.----.--------------.----.------.-.----.-.----|
|-8-8-7--8-8-7----2--x-2-2-------3----2--x-2--2---8-8-7--8-8-8\-|
|-8-8-7--8-8-7--.-2--x-2-2---.-.-3--.-2--x-2--2---8-8-7--8-8-8\-|
|-6-6-5--6-6-5--0-0--x-0-0---0-0-1--0-0--x-0--0---6-6-5--6-6-6\-|

Verse 1
=======

 Riff 6: (x 4)
|-------------------------------------------------|
|-------------------------------------------------|
|--------.-------------------.------.-.----.-.----|
|---2--x-2-2-------3----2--x-2--2---8-8-7--8-8-7--|
|-.-2--x-2-2---.-.-3--.-2--x-2--2---8-8-7--8-8-7--|
|-0-0--x-0-0---0-0-1--0-0--x-0--0---6-6-5--6-6-5--|

 Fill 1: ??
|-----------------------------|
|-----------------------------|
|-----------------------------|
|-----------------------------|
|-----------------------------|
|-----------------------------|

 Riff 7:                  (x 3)
|-------------------------------|------------------------------------|
|-------------------------------|------------------------------------|
|.-----------------------------.|--------------0h5h7-----------------|
|.-3-------------4\3---4/5-4/5-.|-3-----------------0h5h7------------|
|--3-------------4\3---4/5-4/5--|-3----------------------0h5h7-0h2h3-|
|--1-1-1-1-1-1-1-2\1-0-2/3-2/3--|-1-1-1-1-1-1-1----------------------|

                          (x 3)
|-------------------------------|------------------------------------|
|-------------------------------|------------------------------------|
|.-----------------------------.|--------------0h5h7-----------------|
|.-3-------------4\3---4/5-4/5-.|-3-----------------0h5h7------------|
|--3-------------4\3---4/5-4/5--|-3----------------------0h5h7-0h2h3-|
|--1-1-1-1-1-1-1-2\1-0-2/3-2/3--|-1-1-1-1-1-1-1----------------------|

|-------------------------------------------------------|
|-------------------------------------------------------|
|-0h5h7-------------------------------------------------|
|------0h5h7------------4-2--------------4\3---4/5-4/5--|
|-----------0h5h7-0h2h3-4-2--------------4\3---4/5-4/5--|
|-----------------------2-0--0-0-0-0-0-0-2\1-0-2/3-2/3--|

Chorus
======

 Riff 8:
|-------------------------------------------------|
|-------------------------------------------------|
|--2----4----5------------------------------------|
|--2----4----5----4-2--------------4\3---4/5-4/5--|
|--0----2----3----4-2--------------4\3---4/5-4/5--|
|-----------------2-0--0-0-0-0-0-0-2\1-0-2/3-2/3--|

|------------------------------------------|-------------------------|
|------------------------------------------|-------------------------|
|-2----4-----------------------------------|-2----4----0----5--------|
|-2----4----4-2--------------4\3---4/5-4/5-|-2----4----0----5----2---|
|-0----2----4-2--------------4\3---4/5-4/5-|-0----2---------3----2---|
|-----------2-0--0-0-0-0-0-0-2\1-0-2/3-2/3-|-----------3---------0---|

Riff 3 (x 2)
Riff 5
Verse
Chorus

Riff 3 (x 2)
Riff 1
Riff 2

Solo
====

Riff 7
Riff 6 (x ?)

Fill 2: ??
|------------------------------------------|
|------------------------------------------|
|------------------------------------------|
|------------------------------------------|
|------------------------------------------|
|------------------------------------------|

Riff 6 (x 3)
|--------------------------------------------------------------------|
|--------------------------------------------------------------------|
|--------------------------------------------------------------------|
|-8-8-7--8-8-7--7-7-6--7-7-6--6-6-5--6-6-5--5-5-4--5-5-4--3-4-4-4-4--|
|-8-8-7--8-8-7--7-7-6--7-7-6--6-6-5--6-6-5--5-5-4--5-5-4--3-4-4-4-4--|
|-6-6-5--6-6-5--5-5-4--5-5-4--4-4-3--4-4-3--3-3-2--3-3-2--1-2-2-2-2--|

Intro (x 5) w/distortion
                                                                (x 3)
|--------------------------------------------------|-----------------|
|--------------------------------------------------|-----------------|
|------.-.---.-----.-.---.-----.-.---.-----.-.---.-|.-----.-.---.---.|
|--6---6-6-6-6-4---4-4-4-4-2---2-2-2-2-0---0-0-0-0-|.-0---0-0-0-0---.|
|--7---7-7-7-7-5---5-5-5-5-3---3-3-3-3-2---2-2-2-2-|--1---1-1-1-1----|
|--------------------------------------------------|-----------------|

                                            (x 2)
|--------------------|---------------------------|
|--------------------|---------------------------|
|--------------------|.-------------------------.|
|--2------------(2)--|.-(2)-----------------(2)-.|
|--2------------(2)--|--(2)-----------------(2)--|
|--0------------(0)--|--(0)-----------------(0)--|

Riff 3 (x 2)

 Fill 3:
|--------------|
|--------------|
|-.-.----.-.---|
|-8-8-7--2-2-3-|
|-8-8-7--2-2-3-|
|-6-6-5--0-0-1-|

Verse
Chorus
Riff 4 (repeat last bar)
Riff 8 (last bar only)
Riff 4

|---------|---------|---------|---------|---------|
|---------|---------|---------|---------|---------|
|-7-------|-5-------|---------|---------|-.-.-.---|
|-7-------|-5-------|-7-------|-5-------|-5-4-2---|
|-5-------|-3-------|-7-------|-5-------|-5-4-2---|
|---------|---------|-5-------|-3-------|-3-2-0---|

|---------|---------|---------|---------|
|---------|---------|---------|---------|
|---------|-5-------|---------|-.-.-.---|
|-5-------|-5-------|-7-------|-5-4-2---|
|-5-------|-3-------|-7-------|-5-4-2---|
|-3-------|---------|-5-------|-3-2-0---|

|---------|---------|---------|---------|
|---------|---------|---------|---------|
|---------|-.-.-.---|---------|-.-.-.---|
|-5-------|-5-4-2---|---------|-5-4-2---|
|-5-------|-5-4-2---|---------|-5-4-2---|
|-3-------|-3-2-0---|---------|-3-2-0---|
--


------------------
From: gregh@tcs.itis.com (Greg and or Paul Halvorson)

                             EYE OF THE BEHOLDER
                                by Metallica
                     from the ...And Justice For All album

       Well here's another one for you by Metallica. I think the whole song is
here, except the solos. If anyone else wants to tab the solos and repost this
w/ the solos, go right ahead. I don't have music for the solos. Well anyway...
have fun.

Repeat & fade from pp-ff                    14x
||-------------------------------------------------||--||----------------------
||-------------------------------------------------||--||----------------------
||*-----------------------------------------------*||--||*---------------------
||*--------------------------------------------9--*||--||*---------------------
||---------------------------------------------7---||--||----------------------
||---0--0--0--0--0--0--0--0--0-----0-----0--0--0---||--||---0--0--0--0--0------


                                                                       4x
------------------------------|------------------------------------------------
------------------------------|------------------------------------------------
------------------------------|------------------------------------------------
------------------------------|------------------------------------------------
------------------------------|------------------------------------------------
0--0--0--3-----3-----3--3--3--|--2--2--2--2--2--2--2--2--2-----2-----2--2------



----||--||-------------------------------------------||--||--------------------
----||--||-------------------------------------------||--||--------------------
---*||--||*-----------------------------------------*||--||*-------------------
---*||--||*-----------------------------------------*||--||*-------------------
----||--||-------------------------------------------||--||--------------------
2---||--||---0--0--0-----0--0--0-----0--0--0--0--0---||--||---0--0--0-----0----



----------------------||----------------------------------------|--||----------
----------------------||----------------------------------------|--||----------
---------------------*||----------------------------------------|--||*---------
---------9--9--9--8--*||--------------------8h9p8---------------|--||*---------
---------7--7--7--7---||------------------------------7h8p7-----|--||----------
---0------------------||--0--0--0-----0--0---------0---------0--|--||---0------



-------------------------------||----------------------------------------------
-------------------------------||----------------------------------------------
------------------------------*||----------------------------------------------
------------------9--9--9--8--*||-----------------------8h9p8------------------
------------------7--7--7--7---||---------------------------------7h8p7--------
0--0-----0--0------------------||--0--0--0-----0--0------------0---------0-----


                                            Rhy. Fig. 1
|----------------------|-----------||--||--------------------------------------
|----------------------|-----------||--||--------------------------------------
|----------------------|-----------||--||*-------------------------------------
|----------------------|--2-----2--||--||*-------------------------------------
|----------------------|--2-----2--||--||--------------------------------------
|--6h7p6--0--2h3p2--0--|--0-----0--||--||----0--0--0--0--0--0--0--0--3---------



---------------|------------------------------------------------||-------------
---------------|------------------------------------------------||-------------
---------------|-----------------------------------------------*||-------------
------------5--|--------------------------------------------4--*||-------------
------------5--|--------------------------------------------4---||-------------
3-----3--3--3--|--2--2--2--2--2--2--2--2--2-----2-----2--2--2---||--0--0--0----



------------------------------------|------------------------------------------
------------------------------------|------------------------------------------
------------------------------------|------------------------------------------
------------------------------------|------------------------------------------
---------------------------------7--|------------------------------------------
0--0--0--0--0--0-----0-----0--0--0--|--0--0--0--0--0--0--0--0--0-----0---------


                   Rhy. Fig. 2
---------||-----|-------------------------|------------------------|-----------
---------||-----|-------------------------|------------------------|-----------
---------||-----|------9--9--10--7--7--8--|-----9--9--10--7--7--8--|-----9-----
---------||--4--|------9--9--10--7--7--8--|-----9--9--10--7--7--8--|-----9-----
------7--||--4--|------7--7--8---5--5--6--|-----7--7--8---5--5--6--|-----7-----
0--0--0--||--2--|---0---------------------|--0---------------------|--0--7-----



----------------|------------------------|------------------------|------------
----------------|------------------------|------------------------|------------
9--10--7--7--8--|-----9--9--10--7--7--8--|-----9--9--10--7--7--8--|------------
9--10--7--7--8--|-----9--9--10--7--7--8--|-----9--9--10--7--7--8--|--9---------
7--8---5--5--6--|-----7--7--8---5--5--6--|-----7--7--8---5--5--6--|--7---------
7--8---5--5--6--|--0--7--7--8---5--5--6--|--0--7--7--8---5--5--6--|--0---------



------------------|--------------------|-----------------------|---------------
------------------|--------------------|-----------------------|---------------
------------------|--------------------|-----------------------|---------------
---------------9--|--5--------------2--|-----------------------|---------------
---------------7--|--5--------------2--|-----------------------|---------------
0-----0-----0--0--|--3-----0--0--0--0--|--6--6--6-----3--3--3--|--5--5--5------



------------------------------------|--------------||--||----------------------
------------------------------------|--------------||--||----------------------
------------------------------------|--------------||--||*---------------------
------------------------------------|--4-----5--4--||--||*---------------------
------------------------------------|--4-----5--4--||--||----------------------
---3--3--3-----2--2--2-----3--3--3--|--2-----3--2--||--||---0--0--0--0--0------



------------|-----------------------------|-----------------------------|------
------------|-----------------------------|-----------------------------|------
------------|-----------------------------|-----------------------------|------
9--9--9--8--|-----------------9--9--9--8--|-----------------9--9--9--8--|------
7--7--7--7--|-----------------7--7--7--7--|-----------------7--7--7--7--|------
------------|--0--0--0--0--0--------------|--0--0--0--0--0--------------|------



-----------------------------------------------------------||------------------
-----------------------------------------------------------||------------------
----------------------------------------------------------*||------------------
---------------8h9p8-----------------------------------2--*||------------------
-------------------------7h8p7-------------------------2---||------------------
0--0--0--0--0---------0---------0--6h7p6--0--2h3p2--0--0---||------------------


Go back and play next verse here.
-------------------------------||--||--------------------------||--------------
-------------------------------||--||--------------------------||--------------
-------------------------------||--||*-----9--9--10--7--7--8--*||--------------
-------------------------------||--||*-----9--9--10--7--7--8--*||--9-----------
-------------------------------||--||------7--7--8---5--5--6---||--7-----------
-------------------------------||--||---0--7--7--8---5--5--6---||--0-----0-----



---------||------------------------|------------------------|------------------
---------||------------------------|------------------------|------------------
---------||-----9--9--10--7--7--8--|-----9--9--10--7--7--8--|------------------
------9--||-----7--7--10--7--7--8--|-----9--9--10--7--7--8--|--9---------------
------7--||-----7--7--8---5--5--6--|-----7--7--8---5--5--6--|--7---------------
0--0--0--||--0---------------------|--0---------------------|--0-----0--0------



------|-----|-----------------------------------|-----||-----------------------
------|-----|-----------------------------------|-----||-----------------------
------|-----|-----------------------------------|-----||-----------------------
---9--|--2--|--5--------------------------------|--2--||-----------------------
---7--|--2--|--5--2--2--2--2--2--2--2--2--2--2--|--2--||-----------------------
0--0--|--0--|--3--0--0--0--0--0--0--0--0--0--0--|--0--||-----------------------



-----------------------------
From: gregh@tcs.itis.com (Greg and or Paul Halvorson)

                             EYE OF THE BEHOLDER
                                by Metallica
                     from the ...And Justice For All album

       Well here's another one for you by Metallica. I think the whole song is
here, except the solos. If anyone else wants to tab the solos and repost this
w/ the solos, go right ahead. I don't have music for the solos. Well anyway...
have fun.

Repeat & fade from pp-ff                    14x
||-------------------------------------------------||--||----------------------
||-------------------------------------------------||--||----------------------
||*-----------------------------------------------*||--||*---------------------
||*--------------------------------------------9--*||--||*---------------------
||---------------------------------------------7---||--||----------------------
||---0--0--0--0--0--0--0--0--0-----0-----0--0--0---||--||---0--0--0--0--0------


                                                                       4x
------------------------------|------------------------------------------------
------------------------------|------------------------------------------------
------------------------------|------------------------------------------------
------------------------------|------------------------------------------------
------------------------------|------------------------------------------------
0--0--0--3-----3-----3--3--3--|--2--2--2--2--2--2--2--2--2-----2-----2--2------



----||--||-------------------------------------------||--||--------------------
----||--||-------------------------------------------||--||--------------------
---*||--||*-----------------------------------------*||--||*-------------------
---*||--||*-----------------------------------------*||--||*-------------------
----||--||-------------------------------------------||--||--------------------
2---||--||---0--0--0-----0--0--0-----0--0--0--0--0---||--||---0--0--0-----0----



----------------------||----------------------------------------|--||----------
----------------------||----------------------------------------|--||----------
---------------------*||----------------------------------------|--||*---------
---------9--9--9--8--*||--------------------8h9p8---------------|--||*---------
---------7--7--7--7---||------------------------------7h8p7-----|--||----------
---0------------------||--0--0--0-----0--0---------0---------0--|--||---0------



-------------------------------||----------------------------------------------
-------------------------------||----------------------------------------------
------------------------------*||----------------------------------------------
------------------9--9--9--8--*||-----------------------8h9p8------------------
------------------7--7--7--7---||---------------------------------7h8p7--------
0--0-----0--0------------------||--0--0--0-----0--0------------0---------0-----


                                            Rhy. Fig. 1
|----------------------|-----------||--||--------------------------------------
|----------------------|-----------||--||--------------------------------------
|----------------------|-----------||--||*-------------------------------------
|----------------------|--2-----2--||--||*-------------------------------------
|----------------------|--2-----2--||--||--------------------------------------
|--6h7p6--0--2h3p2--0--|--0-----0--||--||----0--0--0--0--0--0--0--0--3---------



---------------|------------------------------------------------||-------------
---------------|------------------------------------------------||-------------
---------------|-----------------------------------------------*||-------------
------------5--|--------------------------------------------4--*||-------------
------------5--|--------------------------------------------4---||-------------
3-----3--3--3--|--2--2--2--2--2--2--2--2--2-----2-----2--2--2---||--0--0--0----



------------------------------------|------------------------------------------
------------------------------------|------------------------------------------
------------------------------------|------------------------------------------
------------------------------------|------------------------------------------
---------------------------------7--|------------------------------------------
0--0--0--0--0--0-----0-----0--0--0--|--0--0--0--0--0--0--0--0--0-----0---------


                   Rhy. Fig. 2
---------||-----|-------------------------|------------------------|-----------
---------||-----|-------------------------|------------------------|-----------
---------||-----|------9--9--10--7--7--8--|-----9--9--10--7--7--8--|-----9-----
---------||--4--|------9--9--10--7--7--8--|-----9--9--10--7--7--8--|-----9-----
------7--||--4--|------7--7--8---5--5--6--|-----7--7--8---5--5--6--|-----7-----
0--0--0--||--2--|---0---------------------|--0---------------------|--0--7-----



----------------|------------------------|------------------------|------------
----------------|------------------------|------------------------|------------
9--10--7--7--8--|-----9--9--10--7--7--8--|-----9--9--10--7--7--8--|------------
9--10--7--7--8--|-----9--9--10--7--7--8--|-----9--9--10--7--7--8--|--9---------
7--8---5--5--6--|-----7--7--8---5--5--6--|-----7--7--8---5--5--6--|--7---------
7--8---5--5--6--|--0--7--7--8---5--5--6--|--0--7--7--8---5--5--6--|--0---------



------------------|--------------------|-----------------------|---------------
------------------|--------------------|-----------------------|---------------
------------------|--------------------|-----------------------|---------------
---------------9--|--5--------------2--|-----------------------|---------------
---------------7--|--5--------------2--|-----------------------|---------------
0-----0-----0--0--|--3-----0--0--0--0--|--6--6--6-----3--3--3--|--5--5--5------



------------------------------------|--------------||--||----------------------
------------------------------------|--------------||--||----------------------
------------------------------------|--------------||--||*---------------------
------------------------------------|--4-----5--4--||--||*---------------------
------------------------------------|--4-----5--4--||--||----------------------
---3--3--3-----2--2--2-----3--3--3--|--2-----3--2--||--||---0--0--0--0--0------



------------|-----------------------------|-----------------------------|------
------------|-----------------------------|-----------------------------|------
------------|-----------------------------|-----------------------------|------
9--9--9--8--|-----------------9--9--9--8--|-----------------9--9--9--8--|------
7--7--7--7--|-----------------7--7--7--7--|-----------------7--7--7--7--|------
------------|--0--0--0--0--0--------------|--0--0--0--0--0--------------|------



-----------------------------------------------------------||------------------
-----------------------------------------------------------||------------------
----------------------------------------------------------*||------------------
---------------8h9p8-----------------------------------2--*||------------------
-------------------------7h8p7-------------------------2---||------------------
0--0--0--0--0---------0---------0--6h7p6--0--2h3p2--0--0---||------------------


Go back and play next verse here.
-------------------------------||--||--------------------------||--------------
-------------------------------||--||--------------------------||--------------
-------------------------------||--||*-----9--9--10--7--7--8--*||--------------
-------------------------------||--||*-----9--9--10--7--7--8--*||--9-----------
-------------------------------||--||------7--7--8---5--5--6---||--7-----------
-------------------------------||--||---0--7--7--8---5--5--6---||--0-----0-----



---------||------------------------|------------------------|------------------
---------||------------------------|------------------------|------------------
---------||-----9--9--10--7--7--8--|-----9--9--10--7--7--8--|------------------
------9--||-----7--7--10--7--7--8--|-----9--9--10--7--7--8--|--9---------------
------7--||-----7--7--8---5--5--6--|-----7--7--8---5--5--6--|--7---------------
0--0--0--||--0---------------------|--0---------------------|--0-----0--0------



------|-----|-----------------------------------|-----||-----------------------
------|-----|-----------------------------------|-----||-----------------------
------|-----|-----------------------------------|-----||-----------------------
---9--|--2--|--5--------------------------------|--2--||-----------------------
---7--|--2--|--5--2--2--2--2--2--2--2--2--2--2--|--2--||-----------------------
0--0--|--0--|--3--0--0--0--0--0--0--0--0--0--0--|--0--||-----------------------
  development and support by
dmitry ivanov