rock
 
|tablatures   |lyrics   |discussion forums   |more tabs @ XGuitar.com

Megadeth tabs

Wanderlust guitar tab

Wanderlust 

Megadeth - Risk

Transcribed by the people at The Megadeth Sanctuary
http://personal.netwrx.net/kweber/index.html
kweber@netwrx.net


Drop D Tuning


Intro/Verse

E-----------------------------------------------------
B---3---3-3-3---3---3-3-3---3---3-3-3-3---3-----------
G---2---2-2-2-h-3---3-3-3-h-5---5-5-5\4---4--0--------
D-----0-----------0-----------0---------0-------------
A-----------------------------------------------------
D-----------------------------------------------------


E-----------------------
B--3---3---3---3--------
G--2---3---2---3--------
D--0---0---0---0--------
A-----------------------
D-----------------------


E----------------------------------------------------
B----3---3-------3---3-------3---3-------3---3-------
G--2---2---2-2-3---3---3-3-5---5---5-5-4---4---0-----
D----------------------------------------------------
A----------------------------------------------------
D----------------------------------------------------


E--------------------------------
B--3-3-3--3----5-----5-----------
G--2-2-2--3------3-----3---0-----
D--0-0-0--0--------3-----3--------
A--------------------------------
D--------------------------------



Chorus
E--------------------------------------------------
B--------------------------------------------------
G---5-x-x------------------------------------------
D---5-x-x--5--5-x-x--0-------3-x-x--5--3-x-x--0----
A---3-x-x--5--5-x-x--0-------3-x-x--5--3-x-x--0----
D----------5--5-x-x--0--0-0--3-x-x--5--3-x-x--0----



Interlude
E--------0----0--0--3--2----------0----0-0--3-2-------
B------3---3--1--1--3--3--------3---3--1-1--3-3-------
G----2-----------0--0--2------2----------0--0-2-------
D--0-------------0--0--0----0------------0--0-0-------
A-----------------------------------------------------
D-----------------------------------------------------



chords for double time part
E---------------5------------
B-------6---8---5------------
G---7---7---7---7------------
D---7---7---7---7------------
A---5---5---5---5------------
D----------------------------

  development and support by
dmitry ivanov