rock
 
|tablatures   |lyrics   |discussion forums   |more tabs @ XGuitar.com

Megadeth tabs

Wake Up Dead bass tab

From: Cameron Clarke 
Artist:	Megadeth
Album:	Peace sells...but who's buyin'?
Song:	Wake Up Dead

bass tab


Tuning: G, D, A, E.

||------------------------------------------------------------||
||------------------------------------------------------------||
||-----------------------------------------1------------------||
||0--0000-3------------------------0--0000--------------------||

||------------------------------------------------------------||
||------------------------------------------------------------||
||--------3-------------------------------5---------6/--------||
||0--0000-------------------------0--0000---0--0000-----------||
Play these two bars times four.

||------------------------||
||------------------------||
||10--9---------10--9-----||
||--------9-10------------||
Then this times four.

||--------------------------------------------||
||--------------------------------------------||
||-9-10--------------------9-10---------------||
||-------12-14-10-12-9-10--------12-14-10-12--||
This times one then straight into the next bar.

||---------------------------------------------------||
||-----------------------5------------5--------------||
||---------------------------------------------------||
||-8-7-6--0--5--0--6--5----6--0--5-0----0-0-0-0-0-0--||
Play this times four then,

||--------------||
||--------------||
||-7---6-5-4----||
||---8-------5--||

||---------------------------------------||
||-----------------------5------------5--||
||---------------------------------------||
||-8-7-6--0--5--0--6--5----6--0--5-0-----||

||--------------||
||--------------||
||-7---6-5-4----||
||---8-------5--||

||---------------------------------------||
||-----------------------5------------5--||
||---------------------------------------||
||-8-7-6--0--5--0--6--5----6--0--5-0-----||

||--------------||
||--------------||
||-7---6-5-4----||
||---8-------5--||
||---------------------------------------||
||-----------------------5------------5--||
||---------------------------------------||
||-8-7-6--0--5--0--6--5----6--0--5-0-----||

||-----------------||
||-----------------||
||-7---6-5-4-------||
||---8-------5-8-7-||

||--------------------------------||
||--------------------------------||
||------------------------3 1-----||
||---6---1--1--1---3-----------3--||
Play this times one, then into the next bar.

||---------------------------------------------||
||---------------------------------------------||
||------------2---------------------5----4--2--||
||4----4-4-4-----2------3-4--4-4-4-------------||
Play this times four.

||------------------------------------||
||------------------------------------||
||------------------------------------||
||2-2-2-2-2-2-2--5--2-2-2-2-2-2-2--7--||

||-------------------------------------||
||-------------------------------------||
||-------------------------------------||
||2-2-2-2-2-2-2--5--2-2-2-2-2-2-2--7-5-||

||--------------------------------------------------||
||--------------------------------------------------||
||--------------------------------------------------||
||-4-4-4-4-4-4-4-4-4-4-4-4-4-4-4-4-4-4-4-4-4-4-4-4--||

||---------------------------||
||---------------------------||
||-----------------2---3-----||
||-5--7---4---------------3--||

||--------------------------------------------------||
||--------------------------------------------------||
||--------------------------------------------------||
||-2-2-2-2-2-2-2-2-2-2-2-2-2-2-2-2-2-2-2-2-2-2-2-2--||

||-------------------------------||
||------6------------------------||
||----5-----5---5----------------||
||--4---------4------------------||

||--------------------------------------------------||
||--------------------------------------------------||
||--------------------------------------------------||
||-2-2-2-2-2-2-2-2-2-2-2-2-2-2-2-2-2-2-2-2-2-2-2-2--||

||-------------------------------||
||------6------------------------||
||----5-----5---5----------------||
||--4---------4------------------||

||--------------------------------------------------||
||--------------------------------------------------||
||--------------------------------------------------||
||-2-2-2-2-2-2-2-2-2-2-2-2-2-2-2-2-2-2-2-2-2-2-2-2--||

||-------------------------------||
||------6------------------------||
||----5-----5---5----------------||
||--4---------4------------------||

||---------------------------------------------||
||---------------------------------------------||
||------------2---------------------5----4--2--||
||4----4-4-4-----2------3-4--4-4-4-------------||
Play this times three.

Pause for two bars.

||-------------||
||-------------||
||-------------||
||-2---1----0--||

||---------------------------||
||---------------------------||
||-------5--2--5-5--7--------||
||-0--0----------------0--0--||
Play this times twelve.

Please e-mail me with any corrections or improvements, although I'm reasonably sure this is correct, Clarke@houseonrock87.freeserve.co.uk


  development and support by
dmitry ivanov