rock
 
|tablatures   |lyrics   |discussion forums   |more tabs @ XGuitar.com

Megadeth tabs

Vortex guitar tab

VORTEX
[Megadeth - Cryptic Writings]
Transcribed by Mark Yeary / Christopher Heer / Michael James
12/28/97
Five Magics - http://www.nebula.on.ca/heer/fivemagics/index.html


Standard Tuning

Intro
--------------------------------------------------------------------------------------------------
--------------------------------------------------------------------------------------------------
--------------------------------------------------------------------------------------------------
-----4-----3---2h3p2-0-2-0------------4-----3---3p2p0-3p2p0------------------4-----3---2h3p2-0-2-0
-2-2---2-2---2-------------3-2-0--2-2---2-2---2-------------3p2p0-3p2p0--2-2---2-2---2------------
--------------------------------------------------------------------------------------------------

---------------------------------
---------------------------------
---------------------------------
--------------------------2-0----
2---------5-4-2-5-------------4--
--0-1-2-3---------2-3-4-5--------

Rhythm w/intro
-----------------------------------------------------
-----------------------------------------------------
-4-------------------------------4---------------4---
-4---------------5-------7-------4---------------4---
-2---------------5-------7-------2---------------2---
-----------------3-------5---------------------------

Verse
------------------------------------------------------------------
------------------------------------------------------------------
-4-------7-----------------------4-------7-------12---------------
-4-------7-------5---------------4-------7-------12---------------
-2-------5-------5---------------2-------5-------10---------------
-----------------3-------22221111-------------------------22221111

Chorus
--------------------------------------------------------------------------------------------------
--------------------------------------------------------------------------------------------------
--------------------------------------------------------------------------------------------------
-----4-----3---2h3p2-0-2-0------------4-----3---3p2p0-3p2p0------------------4-----3---2h3p2-0-2-0
-2-2---2-2---2-------------3-2-0--2-2---2-2---2-------------3p2p0-3p2p0--2-2---2-2---2------------
--------------------------------------------------------------------------------------------------

---------------------------------
---------------------------------
---------------------------------
--------------------------2-0----
2---------5-4-2-5-------------4--
--0-1-2-3---------2-3-4-5--------

Rhythm w/chorus
-----------------------------------------------------
-----------------------------------------------------
-4-------------------------------4---------------4---
-4---------------5-------7-------4---------------4---
-2---------------5-------7-------2---------------2---
-----------------3-------5---------------------------

Interlude
-----------------------------------------------------------------
-----------------------------------------------------------------
-------------------------------------------------------------5---
---------------------------------------------------------3---3---
-----2-----0-----1-----1-1p0---------2-----0-----1-----1-1-------
-0-0---0-0---0-0---0-0-------3p0-0-0---0-0---0-0---0-0-----------

Shredfest Rhythm
------------------------------------------------------------------
------------------------------------------------------------------
-------------------7----------------------------------------------
-----2h3p2---2-3/5---7-5---4h5p4---4-----5------------------------
-2-5-------5-------------7-------7---------3h4p3---3-4444-3333----
-------------------------------------3-3---------6---2222-1111----

Solo Rhythm #1
-----------------------------------------------------------------------------------------
-----------------------------------------------------------------------------------------
-4---------7---------4---------7---------4---------7---------4-----------------2---------
-4---------7---------4---------7---------4---------7---------4---------5-------2---------
-2-----0-2-5---0-2-0-2-----0-2-5---0-2-0-2-----0-2-5---0-2-0-2---------5-------0---0-2-0-
-------------------------------------------------------------------0-0-3---0-3-----------

Solo Rhythm #2
-----------------------------------------
-----------------------------------------
-6-------------------6-------------------
-6---------5---------6---------5---------
-4---------5-----4-7-4---------5-----4-7-
-------3-6-3---------------3-6-3---------

Outro Riff
------------------------------------------------------------------------------
------------------------------------------------------------------------------
------------------------------------------------------------------------------
-----7-----5-----6----5-----5-----4--3---7-7--5-5/7--------------------5~-----
-0-0---0-0---6-6----6---0-0---4-4----4---8-8--6-6/8---0-0--7p5-7~~-5-7----7---
------------------------------------------------------------------------------
  development and support by
dmitry ivanov