rock
 
|tablatures   |lyrics   |discussion forums   |more tabs @ XGuitar.com

Megadeth tabs

Victory bass tab

Song: Victory
Artist: Megadeth
Album: Youthanasia

From: Chris 
Here's the correct bass tab for the main line in Victory.  Also, it's
not in standard tuning, everything is tuned down 1/2 step.

 |-------------------|-----------------|
 |-------------------|----4-5-----4-5--|
 |-------------------|--3-------3------|
 |--0-0-7-0-6-7-6-0--|-----------------|

        Rock on,

        Chris

--------------------------------------------
Tabbed By: Ray (megadeth_man@hotmail.com)

The original tab that's posted is very wrong, and since
i figured the song out by ear and guitar tab, I'd tab it out.
the song is in standard tuning

Verse
-----------------------
-----------------------
-----------------------
0-0-0-0-0-0-0-0-0-0-0-0

-------------------------------------
-------------------------4-5----4-5--
-----------------------3------3------
-0-0-0-0-0-0-0-0-0-0-0--------------0

Pre-Chorus
--------------------
--------------------
--------------------
2-2-2-2-2-2-2-2-2-2-2-2

--------------------
--------------------
--------------------
2-2-2-2-2-2-2-2-2-2-2-2

--------------------
--------------------
--------------------
2-2-2-2-2-2-2-2-2-2-2-2

--------------------
--------------------
--------------------
2-2-2-2-2-2-2-2-2-2-2-2

--------------------
--------------------
--------------------
2-2-2-2-2-2-2-2-2-2-2-2

--------------------
--------------------
--------------------
2-2-2-2-2-2-2-2-2-2-2-2

---------------------
---------------------
---------------------
3-3-3-3-3-3-3-3------


Chorus
-----------------------
-----------------------
----------------8-7----
0-0-0-0-0-0-0-0-----7-6

------------------------
------------------------
----------------8-7--5-7
0-0-0-0-0-0-0-0---------

Interlude
------------------------
--2-4---2-4---2-4---4-2-
5-----3-----5-----2-----
------------------------

Thats it, really simple once you get the hang of it, and fun to play
I didn't include the tiems each part is played you can probably figure
that out it's not that hard, there is probably more then one way to
play it but this is how i play it, goes along with the guitar except
in the pre-chorus

I am also about to tab out Reckoning Day, Addicted To Chaos, Killing Road, 
and Paranoid.


Comments, Questions, email me at megadeth_man@hotmail.com
  development and support by
dmitry ivanov