rock
 
|tablatures   |lyrics   |discussion forums   |more tabs @ XGuitar.com

Megadeth tabs

Tornado Of Souls bass tab

                              Tornado of Souls
                               Rust in Peace
Tabbed by I MUD I@aol.com


                                                                           
G---|---------------------------------|-------------------------------|----
D---|---------------------------------|-------------------------------|----
A---|-2-------------------------------|-------------------2---2---2---|----
E---|---------------------------------|-------------------------------|----
                                                                           

                                                                           
G-----------------------------------|---------------------------------|----
D-----------------------------------|---------------------------------|----
A-----------------------------------|-----------------------------2---|----
E-----------------------------------|---------------------------------|----
                                                                           

                                                                           
G-------------------------------------|-------------------------------|----
D-------------------------------------|-------------------------------|----
A-------------------------------------|-------------------2---2---2---|----
E-------------------------------------|-------------------------------|----
                                                                           

                                                                           
G-----------------------------------|---------------------------------|----
D-----------------------------------|---------------------------------|----
A-----------------------------------|-----------------------------2---|----
E-----------------------------------|---------------------------------|----
                                                                           

                                                                           
G-------------------------------------|-------------------------------|----
D-------------------------------------|-------------------------------|----
A-------------------------------------|-------------------2---2---2---|----
E-------------------------------------|-------------------------------|----
                                                                           

                                                                           
G-----------------------------------|---------------------------------|----
D-----------------------------------|---------------------------------|----
A-----------------------------------|-----------------------------2---|----
E-----------------------------------|---------------------------------|----
                                                                           

                                                                           
G-----------------------------------|---------------------------------|----
D-----------------------------------|-----------------------------9---|----
A-----------------------------------|---------------------------------|----
E-----------------------------------|---------------------------------|----
                                                                           

                                                                           
G-----------------------------------|--------------------------------------
D-------4-----------7---4-----------|--------------------------------------
A-----------5---------------5-------|-7h8p7---5h7p5---4h5p4---3---2--------
E---------------7---------------7---|--------------------------------------
                                                                           

                                                                           
G---||----------------------------------|----------------------------------
D---||*---------------------------------|----------------------------------
A---||*---------2---2---2---------------|-----------------------------2----
E---||----------------------2---2---3---|-3---0---0---2---2---3---0--------
                                                                           

          Singing starts                                                   
G------||-||----------------------------------|----------------------------
D-----*||-||*---------------------------------|----------------------------
A-----*||-||*---------2---2---2---------------|----------------------------
E------||-||----------------------2---2---3---|-3---0---0---2---2---3------
                                                                           

             2x                                                            
G------------||---------------------------------|--------------------------
D-----------*||---------------------------------|--------------------------
A-------2---*||---------2---2---2---------------|--------------------------
E---0--------||---------------------2---2---3---|-3---0---0---2---2---3----
                                                                           

                Not for the money\Not from the years...                    
G-----------||----------------------------------|--------------------------
D-----------||*---------------------------------|--------------------------
A---------0-||*---------0---0---0---------------|-------------0-----3------
E-----0-----||----------------------0-------1---|-----3---3----------------
                                                                           

                Not for the power\not from the tears...                    
G------------||---------------------------------|--------------------------
D-----------*||---------------------------------|--------------------------
A-------3---*||-2-------2---2---2---------------|--------------------------
E------------||---------------------2---2---3---|-3---0---0---2---2---3----
                                                                           

                                                                           
G-------------|-----------------------------------|------------------------
D-------------|-----------------------------------|------------------------
A---------2---|-----------2---2---2---------------|------------------------
E-----0-------|-----------------------2---2---3---|-3---0---0---2---2------
                                                                           

                            chorus                                         
G---------------||----------------------------------|--------------
D---------------||*---------------------------------|--------------
A-----------2---||*---(2)---------------------------|--------------
E---3---0-------||----------------------2-------3---|-----0---2----
                                                                           

                                                                           
G-------------------------|---------------------------------|--------------
D-------------------------|---------------------------------|--------------
A-------------------------|---------------------------------|--------------
E-----3---3---2---0---0---|---------------------3-------3---|-2------------
                                                                           

                           2x                                              
G--------------------------||-----------------------------------|----------
D-------------------------*||-----------------------------------|----------
A-------------5-------5---*||-----------------------------------|----------
E--------------------------||-----------------------2-------3---|-----0----
                                                                           

                                                                           
G-----------------------------|---------------------------------|----------
D-----------------------------|---------------------------------|----------
A-----------------------------|---------------------------------|----------
E-----2---3---3---2---0---0---|---------------------3-------3---|----------
                                                                           

    blow me away!                                                          
G-----------------------------------------------||-------------------------
D-----------------------------------------------||*------------------------
A-----------------------5---5---4---0---1---2---||*---------2---2---2------
E---2-------------------------------------------||-------------------------
                                                                           

                                                                           
G---------------|----------------------------------||----------------------
D---------------|---------------------------------*||----------------------
A---------------|-----------------------------2---*||----------------------
E---2---2---3---|-3---0---0---2---2---3---0--------||----------------------
                                                                           

Go back to where the singing starts and play it exactly the same but 
skip the repeat and start up here 


      Who's to say...                                                      
G---|-----------------------------------------|----------------------------
D---|-----------------------------------------|----------------------------
A---|-----------------------------------------|----------------------------
E---|-----------------------------2-------3---|----------------------------
                                                                           

                                                                           
G---------|-----------------------------------|----------------------------
D---------|-----------------------------------|----------------------------
A---------|-2---------------------------------|---------------------5------
E---------|-----------------------2-------3---|----------------------------
                                                                           

                                                                           
G-----------|---------------------------------|----------------------------
D-----------|---------------------------------|----------------------------
A-------2---|---------------------------------|----------------------------
E-----------|---------------------2-------3---|----------------------------
                                                                           

                                                                           
G-------------|-----------------------------------|------------------------
D-------------|-----------------------------------|------------------------
A-------------|-2---------------------------------|------------------------
E-------------|-----------------------2-------3---|------------------------
                                                                           

                                                                           
G---------------|-------------------------------|--------------------------
D---------------|-------------------------------|--------------------------
A---5-------0---|-------------------------------|--------------------------
E---------------|-------------------0-------1---|--------------------------
                                                                           

                                                                           
G-----------|---------------------------------|----------------------------
D-----------|---------------------------------|----------------------------
A-----------|-0-------------------------------|---------------------3------
E-----------|---------------------0-------1---|----------------------------
                                                                           

                                                                           
G-----------|---------------------------------|----------------------------
D-----------|---------------------------------|----------------------------
A-------2---|---------------------------------|----------------------------
E-----------|---------------------2-------3---|----------------------------
                                                                           

                                                                           
G-----------|---------------------------------|----------------------------
D-----------|---------------------------------|----------------------------
A-----------|-2-------------------------------|---------------------5------
E-----------|---------------------2-------3---|----------------------------
                                                                           

                                                                           
G-----------|---------------------------------|----------------------------
D-----------|---------------------------------|----------------------------
A-------2---|---------------------------------|----------------------------
E-----------|---------------------------------|----------------------------
                                                                           

              intro riff again                                             
G-----------|---------------------------------|----------------------------
D-----------|---------------------------------|----------------------------
A-------2---|---------------------------------|----------------------------
E-----------|---------------------------------|----------------------------
                                                                           

                                                                           
G-----------|---------------------------------|----------------------------
D-----------|---------------------------------|----------------------------
A-----------|---------------------------------|----------------------------
E-------3---|---------------------------------|----------------------------
                                                                           

                                                                           
G-----------|-------------------------------|------------------------------
D-----------|-------------------------------|------------------------------
A-----------|-------------------------------|------------------------------
E-------0---|-------------------------------|------------------------------
                                                                           

                                                                           
G---------|---------------------------------|------------------------------
D---------|---------------------------------|------------------------------
A---------|-----------------------------0---|---------------------0--------
E-----2---|---------------------------------|------------------------------
                                                                           

                                                                           
G---------|---------------------------------|------------------------------
D---------|---------------------------------|------------------------------
A-----2---|---------------------------------|------------------------------
E---------|---------------------------------|------------------------------
                                                                           

                                                                           
G---------|---------------------------------|------------------------------
D---------|---------------------------------|------------------------------
A---------|---------------------------------|------------------------------
E-----3---|---------------------------------|---------------------0---0----
                                                                           

                                                                           
G---------|-------------------------------|--------------------------------
D---------|-------------------------------|--------------------------------
A---------|-------------------------------|--------------------------------
E-----0---|-------------------------------|--------------------------------
                                                                           

                                            
G-------|---------------------------------|--------------------------------
D-------|---------------------------------|--------------------------------
A-------|-----------------------------0---|---------------------0---1------
E---2---|---------------------------------|--------------------------------
                                                                           

                                                                           
G-------|---------------------------------|--------------------------------
D-------|---------------------------------|--------------------------------
A---2---|---------2---2---2---2---2---2---|-2---2---2---2---2---2---2------
E-------|---------------------------------|--------------------------------
                                                                           

                                                                           
G-------|-----------------------------------|------------------------------
D-------|-----------------------------------|------------------------------
A-------|-----------------------------------|------------------------------
E---3---|-----------3---3---3---3---3---3---|-3---3---3---3---3---3---3----
                                                                           

                                                                           
G---------|---------------------------------|------------------------------
D---------|---------------------------------|------------------------------
A---------|---------------------------------|------------------------------
E-----0---|---------0---0---0---0---0---0---|-0---0---0---0---0---0---0----
                                                                           

                                                                           
G---------|---------------------------------|------------------------------
D---------|---------------------------------|------------------------------
A---------|-----------------------------0---|-0---0---0---0---0---1--------
E-----2---|-----2---2---2---2---2---2-------|------------------------------
                                                                           

            The land of opportunity...                                     
G---------|---------------------------------|------------------------------
D---------|---------------------------------|------------------------------
A-----2---|---------2---2---2---2---2---2---|-2---2---2---2---2---2---2----
E---------|---------------------------------|------------------------------
                                                                           

                                                                           
G---------|-----------------------------------|----------------------------
D---------|-----------------------------------|----------------------------
A---------|-----------------------------------|----------------------------
E-----3---|-----------3---3---3---3---3---3---|-3---3---3---3---3---3------
                                                                           

                                                                           
G-----------|---------------------------------|----------------------------
D-----------|---------------------------------|----------------------------
A-----------|---------------------------------|----------------------------
E---3---0---|---------0---0---0---0---0---0---|-0---0---0---0---0---0------
                                                                           

                                                                           
G-----------|---------------------------------|----------------------------
D-----------|---------------------------------|----------------------------
A-----------|-----------------------------0---|-0---0---0---0---0---1------
E---0---2---|-----2---2---2---2---2---2-------|----------------------------
                                                                           

                                                                           
G-----------||----------------------------------|--------------------------
D-----------||*---------------------------------|--------------------------
A-------2---||*---------2---2---2---2---2---2---|-2---2---2---2---2---2----
E-----------||----------------------------------|--------------------------
                                                                           

                                                                           
G-------------|-----------------------------------|------------------------
D-------------|-----------------------------------|------------------------
A-----2-------|-----------------------------------|------------------------
E---------3---|-----------3---3---3---3---3---3---|-3---3---3---3---3------
                                                                           

                                                                           
G---------------|---------------------------------|------------------------
D---------------|---------------------------------|------------------------
A---------------|---------------------------------|------------------------
E---3---3---0---|---------0---0---0---0---0---0---|-0---0---0---0---0------
                                                                           

                                                                           
G---------------|---------------------------------|------------------------
D---------------|---------------------------------|------------------------
A---------------|-----------------------------0---|-0---0---0---0---0------
E---0---0---2---|-----2---2---2---2---2---2-------|------------------------
                                                                           

               2x solo                                                     
G--------------||-||----------------------------------|--------------------
D-------------*||-||*---------------------------------|--------------------
A---1-------2-*||-||*---------2---2---2---2---2---2---|-2---2---2---2------
E--------------||-||----------------------------------|--------------------
                                                                           

                                                                           
G-------------------|-----------------------------------|------------------
D-------------------|-----------------------------------|------------------
A---2---2---2-------|-----------------------------------|------------------
E---------------3---|-----------3---3---3---3---3---3---|-3---3---3---3----
                                                                           

                                                                           
G---------------------|---------------------------------|------------------
D---------------------|---------------------------------|------------------
A---------------------|---------------------------------|------------------
E-----3---3---3---0---|---------0---0---0---0---0---0---|-0---0---0---0----
                                                                           

                                                                           
G---------------------|---------------------------------|------------------
D---------------------|---------------------------------|------------------
A---------------------|-----------------------------0---|-0---0---0---0----
E-----0---0---0---2---|-----2---2---2---2---2---2-------|------------------
                                                                           

                     6x     Cant say whats on mind...                      
G--------------------||-||----------------------------------|--------------
D-------------------*||-||*---------------------------------|--------------
A-----0---1-------2-*||-||*---------2---2---2---2---2---2---|-2---2---2----
E--------------------||-||----------------------------------|--------------
                                                                           

                                                                           
G-------------------------|-----------------------------------|------------
D-------------------------|-----------------------------------|------------
A-----2---2---2---2-------|-----------------------------------|------------
E---------------------3---|-----------3---3---3---3---3---3---|-3---3------
                                                                           

                                                                           
G---------------------------|---------------------------------|------------
D---------------------------|---------------------------------|------------
A---------------------------|---------------------------------|------------
E---3---3---3---3---3---0---|---------0---0---0---0---0---0---|-0---0------
                                                                           

                                                                           
G---------------------------|---------------------------------|------------
D---------------------------|---------------------------------|------------
A---------------------------|-----------------------------0---|-0---0------
E---0---0---0---0---0---2---|-----2---2---2---2---2---2-------|------------
                                                                           

                           2x                                              
G--------------------------||-||----------------------------------|--------
D-------------------------*||-||*---------------------0-----------|--------
A---0---0---0---1-------2-*||-||*-----2-------0---2-------2---0---|-2------
E--------------------------||-||----------2-----------------------|--------
                                                                           

                                    Well i warn you of the fate...         
G--------------------------------||---------------------------------|------
D-----------------------0-------*||---------------------0-----------|------
A---------------0---2-------2---*||-----2-------0---2-------2---0---|-2----
E-------0---2--------------------||---------2-----------------------|------
                                                                           

                                                                           
G---------------------------------|---------------------------------|------
D---------------------------------|---------------------------------|------
A---------2---2---2---2---2---5---|-----5---5---5---5---5---5---5---|-5----
E---------------------------------|---------------------------------|------
                                                                           

                                                                           
G---------------------------------|---------------------------------|------
D---------------------------------|---------------------------------|------
A-----5---5---5---5---5---5---7---|-----7---7---7---7---7---7---7---|------
E---------------------------------|---------------------------------|------
                                                                           

    One of the best Mega-Basslines                                         
G------------------------------------|-------------------------------------
D------------------------------------|-------------------------------------
A---7---7---7---7---7---7---9---10---|---------------10---12---10----------
E------------------------------------|-----10---12------------------12-----
                                                                           

                                                                           
G--------|-----------------------------------------|-----------------------
D--------|-------------------------------12--------|-----------------------
A---12---|-12---12---12---12--------12--------14---|-----14--------12------
E--------|---------------------14------------------|----------14-----------
                                                                           

                                                                           
G-----------------------|---------------------------------------|----------
D-----------------------|-------------------------------12---12-|-----12---
A---14---14---14---14---|-14---14---14---14---14---14-----------|----------
E-----------------------|---------------------------------------|----------
                                                                           

                                                                           
G-----------------------------------|--------------------------------------
D-----12---12---12---12---12---12---|-12---12---12---12---12---12---12-----
A-----------------------------------|--------------------------------------
E-----------------------------------|--------------------------------------
                                                                           

                                                                           
G--------|----------------------------------------|------------------------
D---14---|-----14---14---14---14---14---14---14---|---14---14---14---14----
A--------|----------------------------------------|------------------------
E--------|----------------------------------------|------------------------
                                                                           

                                                                           
G-------------------------|----------------------------------------|-------
D-----12---12---12---17---|-----17---17---17---17-------------19---|-------
A-------------------------|-------------------------17---19--------|-------
E-------------------------|----------------------------------------|-------
                                                                           

                                                                           
G----------------------------------|---------------------------------|-----
D---19---19---19-----------0-------|---------------------0-----------|-----
A------------------0---2-------3---|-----3-------0---3-------3---0---|-3---
E----------------------------------|---------3-----------------------|-----
                                                                           

                                                                           
G---------------------------------|---------------------------------|------
D-------------------------0-------|---------------------0-----------|------
A-----------------0---3-------2---|-----2-------0---2-------2---0---|-2----
E---------0---3-------------------|---------2-----------------------|------
                                                                           

                                                                           
G-----------------------------------|---------------------------------|----
D---------------------------0-------|---------------------0-----------|----
A-------------------0---2-------3---|-----3-------0---3-------3---0---|----
E-----------0---2-------------------|---------3-----------------------|----
                                                                           

                                                                           
G-----------------------------------|---------------------------------|----
D---------------------------0-------|---------------------0-----------|----
A---3---------------0---3-------2---|-----2-------0---2-------2---0---|----
E-----------0---3-------------------|---------2-----------------------|----
                                                                           

                                                                           
G-----------------------------------|---------------------------------|----
D---------------------------0-------|---------------------------------|----
A---2---------------0---2-------2---|---------------------------------|----
E-----------0---2-------------------|---------------------2-------3---|----
                                                                           

                                                                           
G-----------------------------------|-------------------------------|------
D-----------------------------------|-------------------------------|------
A-----------------------0-----------|-------------------------------|------
E-------------------------------0---|-0-----------------2-------3---|------
                                                                           

                                                                           
G-----------------------------------|---------------------------------|----
D-----------------------------------|---------------------------------|----
A-------------0---0-------------2---|---------------------------------|----
E-----------------------------------|---------------------2-------3---|----
                                                                           

                                                                           
G-----------------------------------|---------------------------------|----
D-------------------------------9---|-------------9---7-----------7---|----
A-----------------------0-----------|-----7---9-----------7---9-------|----
E-----------------------------------|---------------------------------|----
                                                                           

                                                                           
G-----------------------------------||-------------------------------------
D-----------------------------------||-------------------------------------
A---7h8p7---5h7p5---4h5p4---3---2---||-------------------------------------
E-----------------------------------||-------------------------------------
                                                                           
  development and support by
dmitry ivanov