rock
 
|tablatures   |lyrics   |discussion forums   |more tabs @ XGuitar.com

Megadeth tabs

Time The End guitar tab


Time: The End
Megadeth - Risk

Transcribed by: The Megadeth Sanctuary
		http://personal.netwrx.net/kweber/index.html

Standard Tuning

	   P.M.          P.M. . . . . . . . .
E--------------------------------------------
B--------------------------------------------
G--------------------------------------------
D---5-/-6------------------------------------
A---6-/-7------------------------------------
E----------0-0---3-p-0--0-0-0-0-0-0-0-0-0-0--


	   P.M.		  P.M. . . . . . . . 
E----------------------------------------------
B----------------------------------------------
G----------------------------------------------
D---5-/-6--------8-/-9-------------------------
A---6-/-7--------9-/-10------------------------
E----------0-0------------0-0-0-0-0-0-0-0-0-0--

E----------------
B----------------
G----------------
D---3-----2--2---
A---1--3--2--2---
E------1--0--0---

Listen for rhythm
E----------------
B----------------
G---2--4--5--7---
D---2--4--5--7---
A---0--2--3--5---
E----------------


Repeat 4X
E-------------------------
B-------------------------
G---9--7-7-7--2--5-5-5----
D---9--7-7-7--2--5-5-5----
A---7--5-5-5--0--3-3-3----
E-------------------------

E-------------------------
B-------------------------
G---9--7-7-7--6--5-5-5----
D---9--7-7-7--6--5-5-5----
A---7--5-5-5--4--3-3-3----
E-------------------------

E-------------------------
B-------------------------
G---4--7-7-7---6---5------
D---4--7-7-7---6---5------
A---2--5-5-5---4---3------
E-------------------------


Guitar Solo  (part 1)
  tremolo w/bar
E----------------|------12-----12-12-----12---------------------12-12---
B--15------------|--15/----15/-------15/----15/-15/-15/-15/-15/---------
G----------------|------------------------------------------------------
D----------------|------------------------------------------------------
A----------------|------------------------------------------------------
E----------------|------------------------------------------------------


E--17/-17/-17/-17/-17/-17/--17-12----15-12----14-12----15-12-----
B---------------------------------12-------12-------12-------12--
G----------------------------------------------------------------
D----------------------------------------------------------------
A----------------------------------------------------------------
E----------------------------------------------------------------


E--14-12----17-12----15-12----14-12----15-12----14-12------------
B--------12-------12-------12-------12-------12-------12---------
G----------------------------------------------------------------
D----------------------------------------------------------------
A----------------------------------------------------------------
E----------------------------------------------------------------


E----------------------------------------------------------------
B--12/-12/-12/-12/-12/-12/---------------------------------------
G--12/-12/-12/-12/-12/-12/---------------------------------------
D---------------------------14-X\--------------------------------
A-----------------------------------------------11-0-12-14-15----
E---------------------------------1/12-12-12-12------------------


E-------------------------------------16-17-19-20----------------
B----------------------------15-17-18----------------------------
G-------------------14-16-17-------------------------------------
D-----------14-5-18----------------------------------------------
A--14-15-17------------------------------------------------------
E----------------------------------------------------------------


E----------------------------------------------------------------
B----------------------------------------------------------------
G----------------------------------------------------------------
D----------------------------------------------------------------
A----------------------------------------------------------------
E----------------------------------------------------------------

  development and support by
dmitry ivanov