rock
 
|tablatures   |lyrics   |discussion forums   |more tabs @ XGuitar.com

Megadeth tabs

Time The Beginning guitar tab


Time: The Beginning - Megadeth

Transcribed by: IcedDeth
The Megadeth Sanctuary
http://personal.netwrx.net/kweber/index.html



 Verse
   Em
E----------------------------------------------------------------
B----------------------------------------------------------------
G----------------------------------------------------------------
D----------------------------------------------------------------
A--12--10-10---9-10-12-10-10--10-10---12--10-10---10-10----------
E--------------------------------0-----------0----0--0-----------



E----------------------------------------------------------------
B----------------------------------------------------------------
G----------------------------------------------------------------
D-------------------------7--------------------------------------
A--9-10-9\-7-7---------------10-10--12--10-10\7-2--2/-7----------
E----------------0-7-10------------------------------------------



E-----------------------------------
B-----------------------------------
G-----------------------------------
D--7--------------------------------
A-----10-10---9-10-9\-7-7--7\-2-----
E-----------------------------------


 Guitar 1
E-------------------------------|---------------------------------
B-------------------------------|---------------------------------
G------5------5--X--4--4--4-----|------5------5--X--4-4-----------
D----5------5----X--4--4--4-----|----5------5----X--4-4-----------
A--3-------------X--2--2--2-----|--3-------------X--2-2--2-0------
E-------------------------------|----------------------------3-2--
|
|
|Guitar 2
E-------------------------------|---------------------------------
B-------------------------------|---------5-----------------------
G--5-------5----------4--4-4-4--|--5------5----5------------------
D--5-------5----------X--X-X-X--|--X------X----X------9-----------
A--3-------3-----4/-6-6--6-6-6--|--7------7----7-7/-9-9--------9\-
E-------------------------------|---------------------------------


 Riff A
  2X
E------------------------------0----
B----------------------------0------
G--------------------------0--------
D------7-----5-----7-----5----------
A----7-----7-----7-----7------------
E--0-----0-----0-----0--------------



 Verse
 4X	     Fill (clean)
E----------|------------------------------
B----------|------------------------------
G--2---0---|------------------------------
D--2-------|------------------------------
A--2-------|--9\-7/-10-9---7--------------
E--0-------|-------------------5/--5\-3---



 Chorus
E-------------------------------------
B--------------------------------0----
G--------0-------0-------0-----0------
D------2-------4-------5-----2--------
A----2-------4-------5----------------
E--0-------0-------0-------0----------



E-------------------------------------
B--------0-------0-------0------------
G------0-------0-------0--------------
D----2-------2-------1----------------
A--3-------0-------2------------------
E---------------------------3--2------


		  Fill (w/ Riff A)
E--0-------0---|----------------------------------------
B--1-------3---|--/14-----/14---------------------15/---
G--0-------0---|------12\-----12\-----12-14/-\-12-------
D--2--2/-4-4---|------------------/14-------------------
A--0-----------|----------------------------------------
E--------------|----------------------------------------


  Solo during verse
E-------------------------------14-17-------------------
B--12-12----------------7---17/-------17/-\-------------
G--12-12-------9/-\-9/----------------------16----------
D--12-12--14--------------------------------------------
A-------------------------------------------------------
E-------------------------------------------------------


E--------------------14-17-14---------------------------------
B--------15-14----------------17-15-17-15---------------------
G--12-14-------14-16----------------------16-15-14-12-14-12---
D-------------------------------------------------------------
A-------------------------------------------------------------
E-------------------------------------------------------------



  time waits for no one.....                not even me
E--0--------0--------0-------------------------------------
B--1--------3--------5--------7----------------------------
G--0--------0--------0--------X----------------------------
D--2---2/-4-4---4/-5-5---5/-7-7----------------------------
A--0--------------------------X----------------------------
E-----------------------------7----------------------------

  development and support by
dmitry ivanov