rock
 
|tablatures   |lyrics   |discussion forums   |more tabs @ XGuitar.com

Megadeth tabs

These Boots guitar tab

THESE BOOTS
[Megadeth - Killing Is My Business... And Business Is Good!]
Transcribed by Mark Yeary


tune down 1/4 step

G)-----9----9----9----9----
D)-----9----9----9----9----  etc.
A)-----7----7----7----7----
E)--0----0----0----0-------

G)-------------------0---------
D)-------------------0---------
A)--2--2--5--2---2-------2-----
E)--0--0--3--0---0-------0-----


faster:

G)--9--9--9--------------------------------------
D)--9--9--9--------------------------------------
A)--7--7--7--7-7-7-7-7-7-7-7-7-7-7-7-7-7-7-7-----
E)-----------------------------------------------

then:

D)-----------------------------------
A)-7-7-7-6-6-6-5-5-5-4-4-4-3-3-2-2---
E)-----------------------------------

D)-----------------------------------2----
A)-----------------------------------2----
E)-6-6-6-5-5-5-4-4-4-3-3-3-2-2-1-1---0----


verse:

G)---------------------------------------------------
D)---------------------------------------------------
A)-7-7-7-7-7-7-7-7-7-7-7-7-7-7-7-7-7-7-7-7-7-7-7-7---
E)---------------------------------------------------

G)--9-p-7-----7---9-p-7-----
D)--9-p-7-----7---9-p-7-----
A)---------9----------------
E)--------------------------

then:

D)---------------------------------------------------
A)---------------------------------------------------
E)-5-5-5-5-5-5-5-5-5-5-5-5-5-5-5-5-5-5-5-5-5-5-5-5---

D)--7-p-5-----5---7-p-5-----
A)--7-p-5-----5---7-p-5-----
E)---------7----------------


chorus:

E)---------------------------------0-0-0----
B)---------------------------------0-0-0----
G)------------------------------------------
D)--5-5-5---2-2-2---5-5-5---2---------------
A)--5-5-5---2-2-2---5-5-5---2---------------
E)--3-3-3---0-0-0---3-3-3---0---------------

outro:

G)-----9----------9---------
D)--------------------------
A)--5--7-------5--7---------
E)--------0-0--------0-0----

ending:

D)--9-------2-----
A)--7---9---2-----
E)------7---0-----

  development and support by
dmitry ivanov