rock
 
|tablatures   |lyrics   |discussion forums   |more tabs @ XGuitar.com

Megadeth tabs

The World Needs A Hero guitar tab

Megadeth
'The World Needs A Hero'

from the album 'The World Needs A Hero'
(2001; Metal-Is Records/Sanctuary)

for comments, corrections etc:
guy@freemail.hammerfall.net

tuning : not a clue, but I tabbed it in D.

*: palm muting
p: pull off
h: hammer on


Riff 1
|---------------------------|
|---------------------------|
|---------------------------|
|---------------------------|
|---------------------------|
|-0000----------------------|
  ****
repeat this lots of times.

Riff 2
|---------------------------|
|---------------------------|
|---------------------------|
|-7-7--7-8-5-6-7-7--7-8-7-5-|
|-5-5--5-6-3-4-5-5--5-6-5-3-|
|---------------------------|

Riff 3
|---------------------------------|
|---------------------------------|
|---------------------------------|
|----0---0-00---------0-2-3-3-2-0-|
|-0h2—0h2-----2-0-0h2-------------|
|---------------------------------|

Riff 4
|-----------------------------|
|-----------------------------|
|-----------------------------|
|---------1p0-3p0-4p0-3p0-1p0-|
|-2-----2---------------------|
|-0-000-0---------------------|
    ***

Riff 5
|---------------------------|
|---------------------------|
|---------------------------|
|---------------------------|
|-3-2--3-2-3-2--------------|
|-1p0—-1p0-1p0--------------|

together with this the other guitar does an upwards slide on
the two bottom strings.
Start on
|-2-------------------------|
|-2-------------------------|
|---------------------------|
|---------------------------|
|---------------------------|
|---------------------------|
and then go up. Listen to the song for where to stop.

Now it's solo-time. Unfortunately I can't do solo's. ?

Solo-rhythm is riff 4 and riff 2.

Have fun! Repeats are up to you.

Guy's tab page @ http://groups.msn.com/hofmansguy
http://urcult.keenspace.com
  development and support by
dmitry ivanov