rock
 
|tablatures   |lyrics   |discussion forums   |more tabs @ XGuitar.com

Megadeth tabs

The World Needs A Hero bass tab

artist: Megadeth
song: The World Needs a Hero
album: The World Needs a Hero
bassist: David Ellefson

verse                                   prechorus
g|-------------------------------------|-----------------------------|
d|o-----------------------------------o|o---------------------------o|
a|o---------3-5-6-5-3-------3-5-6-5-3-o|o--2-2-2-3-0-1-2-2-2-3-0-1--o|
e|----5-3-5-----------5-3-5------------|-----------------------------|

chorus                            bridge
g|-------------------------------|-----------------------------|
d|o-----------------------------o|o---------------------------o|
a|o-----3-----3------3-5-6-5-3--o|o---------------------------o|
e|--3^5---3^5----5-3-------------|----5----5----3\------5--3\--|

bridge part 2 repeat each 2x
g|------------------|----------------|----------------|----------------|
d|o----------------o|o--------------o|o--------------o|o--------------o|
a|o----------------o|o--------------o|o--------------o|o--------------o|
e|--0-0-0-0-0-0-0-0-|1-1-1-1-1-1-1-1-|2-2-2-2-2-2-2-2-|3-3-3-3-3-3-3-3-|

solo
g|-------------------------------------------------------------------|
d|o-----------------------------------------------------------------o|
a|o-------------3-3-5-5-6-6-5-5-3-3-------------3-3-5-5-6-6-5-5-3-3-o|
e|-5-5-3-3-5-5---------------------5-5-3-3-5-5-----------------------|
  development and support by
dmitry ivanov