rock
 
|tablatures   |lyrics   |discussion forums   |more tabs @ XGuitar.com

Megadeth tabs

The Scorpion bass tab

Artist: Megadeth
Album: The System Has Failed
Year: 2004
Tuning: standard
Tabber: the scorpion 666

hey this is a deadly song here it is:

at 0:40 seconds u start.

riff 1;
G---------------------|
D---------------------|
A-4---2--------------|
E-----------3---2---0|

riff 2;
G-----------------------------------------------------------------------|
D-----------------------------------------------------------------------|
A------------------------------------------------------2-1-0---5-4-3-|
E--0-2-2-----------0-2-3-----------3-2-0----------------------------|

riff 3;
G---------------------------------|
D---------------------------------|
A-2--0-0-2--0-0-2--0-0-2-3--|
E---------------------------------|

riff 4;
G---------------------------------------------------|
D---------------------------------------------------|
A------------5/7---3---3-3-3-3-3-2-0-2-3-2-0-|
E--0--0--------------------------------------------|

riff 1 x1
riff 2 x4
riff 3 x8
riff 4 x4
riff 1 x1
riff 2 x4
riff 3 x8
riff 4 x12
riff 2 x4

thats all folks!!! I think the timing is wrong. please correct if u find a mistake! thanks! please rate!
  development and support by
dmitry ivanov