rock
 
|tablatures   |lyrics   |discussion forums   |more tabs @ XGuitar.com

Megadeth tabs

The Killing Road guitar tab

			      The Killing Road.			  	 
                                  Megadeth
				 Youthansia.			

Tabbed By Mat, 24th October 1994.

Note: Just got the album, thought I'd tab up a few riffs

Notation:	h=Hammer;	p=Pull;		.=Palm Mute;
		\=Slide down;	/=Slide up;	b=bend.	


Tempo about 175

Intro:
                                 Play 2x                           Play 2x
eb---|(Guitar 1)-----------------------||--------------------------------||
Bb---||--------------------------------||--------------------------------||
Gb---||--------------------------------||--------------------------------||
Db---||----2-----3-----2-----3---------||----2-----3-----2-----3---------||
Ab---||--------------------------5~~~~~||--------------------------5~~~~~||
Eb---||0-0---0-0---0-0---0-0---0-------||0-0---0-0---0-0---0-0---0-------||
     ||. .   . .   . .   . .   .       ||. .   . .   . .   . .   .       ||
     ||                                ||                                ||
eb---|(Guitar 2)-----------------------||--------------------------------||
Bb---||--------------------------------||--------------------------------||
Gb---||--------------------------------||----4-----5-----4-----5---------||
Db---||--------------------------------||--------------------------7~~~~~||
Ab---||--------------------------------||--------------------------------||
Eb---||--------------------------------||0-0---0-0---0-0---0-0---0-------||
                                         . .   . .   . .   . .   .

                                                             Play 2x
|(Guitars 1&2)--------------------|--------------------------------||
||--------------------------------|--------------------------------||
||--------------------------------|----------------------5-------4-||
||----2-----3-----2---------------|----3-----3-------2-5-----1-4---||
||--------------------5-2-5-------|--------------353-------2-------||
||0-0---0-0---0-0---0---------2-3-|1-1---1-1---1-------------------||
  . .   . .   . .   .         . .  . .   . .   . ... . .   . . .  

Verse 1:
--------
                                                             Play 4x
|(Guitars 1&2)--------------------|--------------------------------||
||--------------------------------|--------------------------------||
||--------------------------------|----------------------5-------4-||
||----2-----3-----2---------------|----3-----3-------2-5-----1-4---||
||--------------------5-2-5-------|--------------353-------2-------||
||0-0---0-0---0-0---0---------2-3-|1-1---1-1---1-------------------||
  . .   . .   . .   .         . .  . .   . .   . ... . .   . . .  
 
Chorus:
-------
                                                             Play 7x
|--------------------------------||--------------------------------||
|--------------------------------||--------------------------------||
|--------------------------------||--------------------------------||
|----9---------------------------||----9---------------------------||
|2---7-----9-----8-----5-------3-||2-x-7-----9-----8-----5-------3-||
|0---------7-----6-----3-------1-||0-x-------7-----6-----3-------1-||
                                     .

Verse 2:
--------
                                                             Play 4x
|(Guitars 1&2)--------------------|--------------------------------||
||--------------------------------|--------------------------------||
||--------------------------------|----------------------5-------4-||
||----2-----3-----2---------------|----3-----3-------2-5-----1-4---||
||2-------------------5-2-5-------|--------------353-------2-------||
||0-0---0-0---0-0---0---------2-3-|1-1---1-1---1-------------------||
    .   . .   . .   .         . .  . .   . .   . ... . .   . . .  

Chorus:
-------
                                                             Play 7x
|--------------------------------||--------------------------------||
|--------------------------------||--------------------------------||
|--------------------------------||--------------------------------||
|----9---------------------------||----9---------------------------||
|2---7-----9-----8-----5-------3-||2-x-7-----9-----8-----5-------3-||
|0---------7-----6-----3-------1-||0-x-------7-----6-----3-------1-||
                                     .

Bridge:
-------

(Guitars 1&2)--------------------|------------------------------|
|--------------------------------|------------------------------|
|--------------------------------|----------------------5-------|
|----2-----3-----2---------------|----3-----3-------2-5-----1-4-|
|2-------------------5-2-5-------|--------------353-------2-----|
|0-0---0-0---0-0---0---------2-3-|1-1---1-1---1-----------------|
   .   . .   . .   .         . .  . .   . .   . ... . .   . . .  


(Guitars 1&2)--------------------|--------------------------------|
|--------------------------------|--------------------------------|
|--------------------------------|--------------------------------|
|----2-----3-----2---------------|9-10--7-9---5-7---4-5-----------|
|--------------------5-2-5-------|7-8---5-7---3-5---2-3-----------|
|0-0---0-0---0-0---0---------2-3-|--------------------------5-4-3-|
 . .   . .   . .   .         . .                            . . . 


Lead Solo:
----------

|(Guitar 1)-----------------------|--------------------------------||
||--------------------------------|--------------------------------||
||--------------------------------|--------------------------------||
||--------------------------------|--------------------------------||
||4---4-----------4---4---------4-|2---2-----------5-------5-------||
||2-2-2-2-2-2-2-2-2-2-2-2-2-2-2-2-|0-0-0-0-0-0-0-0-3---0-0-3---0-0-||
    .   . . . . .   .   . . . .      .   . . . . .     . .     . .

                                                            Play 3x
|--------------------------------|--------------------------------||
|--------------------------------|--------------------------------||
|--------------------------------|--------------------------------||
|--------------------------------|--------------------------------||
|4---4-----------4---4-----4---4-|2---2-----------5-------5-------||
|2-2-2-2-2-2-2-2-2-2-2-2-2-2-2-2-|0-0-0-0-0-0-0-0-3---0-0-3---0-0-||
    .   . . . . .   .   . .   .      .   . . . . .     . .     . .


Marty: Ignore this!.

(Guitar 2)-----------------------|--------------------------------|
|------------------7-------------|--------------------------------|
|------------6---------6---------|-----------6---7---9---9-/-11---| etc...
|------8--------------------8----|------8-------------------------|
|9-------------------------------|9-------------------------------|
|--------------------------------|--------------------------------|



(Guitar 1)-----------------------|
|--------------------------------|
|--------------------------------|
|--------------------------------|
|2-----------------------3-3-3-5-|
|0-----------------------1-1-1-3-|


|(Guitars 1&2)--------------------|--------------------------------||
||--------------------------------|--------------------------------||
||--------------------------------|----------------------5-------4-||
||----2-----3-----2---------------|----3-----3-------2-5-----1-4---||
||--------------------5-2-5-------|--------------353-------2-------||
||0-0---0-0---0-0---0---------2-3-|1-1---1-1---1-------------------||
  . .   . .   . .   .         . .  . .   . .   . ... . .   . . .  

Chorus:
-------
                                                     Repeat till end.
|--------------------------------||--------------------------------||
|--------------------------------||--------------------------------||
|--------------------------------||--------------------------------||
|----9---------------------------||----9---------------------------||
|2---7-----9-----8-----5-------3-||2-x-7-----9-----8-----5-------3-||
|0---------7-----6-----3-------1-||0-x-------7-----6-----3-------1-||
                                     .

--
+---------------------------------------------+----------------------------+
| Lee Metcalfe                                | E-Mail: scm2lm@cm.cf.ac.uk | 
| University of Wales, College of Cardiff     |    Irc: Bud3              / 
| Tied to machines that make me be -Metallica | XPilot: Bud3             /
+---------------------------------------------+-------------------------':)
  development and support by
dmitry ivanov