rock
 
|tablatures   |lyrics   |discussion forums   |more tabs @ XGuitar.com

Megadeth tabs

The Doctor Is Calling guitar tab


The Doctor Is Calling
Megadeth - Risk

Transcribed by the people at The Megadeth Sanctuary


E-------------------------------------------------------------
B------7----------------------------7-------------------------
G------------7-----6-----5----------------7-----6-----5-------
D---4--4--4-----4-----4-----4----4--4--4-----4-----4-------5--
A------------5-----4-----3----7-----------5-----4-----3--7----
E---2-----2-----2-----2-----2-0--2-----2-----2-----2-----0-3--

E-----------------------------------------------------------------------------------
B-----------------------------------------------------------------------------------
G-----------------------------------------------------------------------------------
D---4--2--2--/7---4----------------------------4--2--2--/7--4-----------------------
A-----------------------------------------------------------4-----------------------
E---2--0--0--/5---2--2-2-2-2-2-2-2-2-2-2-------2--0--0--/5--2--2-2-2-2-2-2-2-2-2-2--

Verse
E--------------------------------------------------------------------------------
B--------------------------------------------------------------------------------
G---------------------------------------------------------------------6--4--4----
D---4--2--2--/7--4--4--4--2--2--/7--2--4--4--2--2--/7--4--4--4--2--2-------------
A---------------------------------------------------------------------4--2--2----
E---2--0--0--/5--2--2--2--0--0--/5--0--2--2--0--0--/5--2--2--2--0--0-------------

E----------------------------------------------------------------------
B----------------------------------------------------------------------
G----------------------------------------------------------------------
D---4--2--2--/7--4--4--4--2--2--/7--2--4--4--2--2--/7--4--4--4--5--5---
A----------------------------------------------------------------------
E---2--0--0--/5--2--2--2--0--0--/5--0--2--2--0--0--/5--2--2--2--3--3---


Chorus
E------|-----------------------------------------
B------|----------0---------------------0--------
G------|--------4---4--2-4-2-0------0-----0------
D------|------2-------------------2---2-----2----
A------|----2-------------------4-------------4--
E--3-2-|--0--------------------------------------


E------------------------------------------------
B--------------0-2-3-2----0----------------------
G----------0-2----------2---0-2------------------
D------2-4----------------------4----------------
A----2-------------------------------------------
E--0---------------------------------------------




Riff during solo
E-----------------------------
B-----------------------------
G-----------------------------
D-----4-----2-----------------
A---------5---5---4---2-------
E---2---2-------2---2---5-2---

E-------------------------
B-------------------------
G-------------------------
D-------------------------
A------4-----4--4---------
E---2--2--0--2--2--0--5---


Guitar Solo
E----------------------------------------------------------------
B----------------------------------------------------------------
G-----11-14-16/--16/-13-14------13-14------14-13-----------------
D--11----------------------16/--------16/--------16\-11-10/\-----
A----------------------------------------------------------------
E----------------------------------------------------------------


E-------------------------16--------------14-14-16-17-16-14-------14-------
B--------------14-17-15/-----16/--14-17/--------------------16-17----17/---
G-----------14-------------------------------------------------------------
D--------14----------------------------------------------------------------
A--14-16-------------------------------------------------------------------
E--------------------------------------------------------------------------


E-----------14----16/-16/-16/-16/-16/-16/-14-16/-16-14---------------------
B--------14----14--------------------------------------17/-14-17-14--------
G--14-16-------------------------------------------------------------------
D--------------------------------------------------------------------------
A--------------------------------------------------------------------------
E--------------------------------------------------------------------------


E--------------14-17-16/-14--------------------17-19/-20/-19-19\/-19-------
B-----14-14-17--------------17-14-----14-17-19-----------------------------
G--17-----------------------------16/--------------------------------------
D--------------------------------------------------------------------------
A--------------------------------------------------------------------------
E--------------------------------------------------------------------------


E--17-19-19/\--21-17----17-21-17------------------------19---------------------------
B--------------------21----------19-21/-21/-19-21----19----19-----------19-----------
G-------------------------------------------------21----------21/-20-21----21/-21\---
D------------------------------------------------------------------------------------
A------------------------------------------------------------------------------------
E------------------------------------------------------------------------------------


Bridge
E---------------------------------
B------------1------3--4--3-------
G--2---4-0-----1------------------
D----3-----------1----------------
A---------------------------------
E---------------------------------



Outro
E----------------------------------------------------------------
B--------------0---------------0---------------------------------
G----------0-----0---------0-----0---------0---3-0---------------
D--------2---2-----2-----2---2-----2-----0---0-----0-------------
A--0-2-3-------------3-2-------------2-1-------------1-----------
E----------------------------------------------------------------


E----------------------------------------------------------------
B----------0-----------------------------------------------------
G------0-----0---------------------------------------------------
D----2---2-----2--------0-1---0-1-------0-1---0-1----------------
A--0-------------0----3-----3-----3---3-----3-----3--------------
E-------------------4---------------3----------------------------


E----------------------------------------------------------------
B----------------------------------------------------------------
G----------------------------------------------------------------
D------0-1---0-1---------------------/6-5-3----------------------
A----3-----3-----3------2-5-2-/6-3-5--------6-5-3-2--3-----------
E--2----------------4-3------------------------------------------
  development and support by
dmitry ivanov