rock
 
|tablatures   |lyrics   |discussion forums   |more tabs @ XGuitar.com

Megadeth tabs

The Conjuring guitar tab

THE CONJURING
[Megadeth - Peace Sells... But Who's Buying?]
Transcribed by Mark Yeary
Five Magics - http://www.nebula.on.ca/heer/fivemagics/index.html


Tune down 1/4 step to be exact with the recording.  Actually, all Peace Sells
songs are tuned down about 1/4 step, but it seems no one has ever mentioned
it.


Intro:

E)------------------------15--------------------15----
B)-----------------15-----------15--------------------
G)--12----12--------------------------12--------------
D)----------------------------------------------------
A)--10------------------------------------------------
E)----------------------------------------------------

E)-----------------------14---------------------14----
B)---------------14-------------14--------------------
G)-11----11----------------------------11-------------
D)----------------------------------------------------
A)--9-------------------------------------------------
E)----------------------------------------------------

E)-----------------------13----------------------13---
B)----------------13-----------13---------------------
G)-10-----10--------------------------10--------------
D)----------------------------------------------------
A)--8-------------------------------------------------
E)----------------------------------------------------

E)---------------------12-------------------12--------
B)--------------12-----------12-----------------------
G)--9-----9-------------------------9-----------------
D)----------------------------------------------------
A)--7-------------------------------------------------
E)----------------------------------------------------

      repeat until "OBEY"! :

D)---2-----
A)---2-----
E)---0-----

G)---------------------------------------------------------------------------
D)--2------------------------------------------4-----------------------------
A)--0------------------------------------------2--------------------2--4-----
E)-------2-2-2-2-2-2-2-2-2-2-2-2-2-2-------------------2-2-2-2-2-2--0--2-----

          last time:

G)------------------------------------------------
D)--2---------------------------------------------
A)--0-----------------------------------2---------
E)-------2-2-2-2-2-2-2-2-2-2-2-2-2-2----0---------

    rhythm during the first solo:

G)---12-----11------10-------9-----
D)---------------------------------
A)---10------9-------8-------7-----
E)---------------------------------

          verse:  ("Behold...")

D)-------------------------------------------
A)-----------------------------3--2----------
E)--0-2-2-2-5-2-2-2-0-2-2-2------------5--2--

      play 8 times.  then:

G)-------------------------------------------10-----9-------------
D)--------------------------------------------8-----7----7-/-9----
A)-------------------------------------------------------5-/-7----
E)--0--0-0-0-0-0-0-0-0-0-0-0-0-0-0-0------------------------------

D)---------------------------------------------------
A)------2----------------------9------------3--------
E)--3---0---0--0-0-0-0-0-0-0---7----0-0-0---1--------

     repeat.  then the verse again

     "Between its leaves.."  :

D)---------------------------------------------
A)------------------------------5--4-----------
E)---2-4-4-4-7-4-4-4-2-4-4-4------------7--4---

   play 8 times.  the last time, finish with:

D)----------9-----
A)---9------7-----
E)---7------------

        "Don't summon the devil..."

D)-----------------------------------------7---9------
A)-----------5-\-4-------4-----7---9-------5---7------
E)---0--0----3-\-2----0--2-----5---7------------------

         play 4 times.  then:

G)---9-----------------------------------
D)---9------------------------7--8--9----
A)---7------------------------7--8--9----
E)---0-----7--10--7--7-------------------

G)---9-----------------------7--9--7-----
D)---9-----------------------7--9--7-----
A)---7-----------------------------------
E)---0-----7--10--7--7-------------------

G)---9-----------------------------------
D)---9------------------------7--8--9----
A)---7------------------------7--8--9----
E)---0-----7--10--7--7-------------------

G)---9---8--7------------7----------7-----9----
D)---9---8--7------9-----7----9-----7-----9----
A)-----------------9----------9----------------
E)---------------------------------------------

          play 4 times, then:

D)---2-----------------------------------9-----------------
A)---2----------8-\-7---5---2------------7-----8----2------
E)---0---0--0---6-\-5---3---0---0--0-----------6----0------

D)------------------------------------------------------------
A)------------8-\-7----------2-/-4---2-/-4-----8-\-7---5------
E)--0-0-0-----6-\-5---0-0----3-/-5---3-/-5-----6-\-5---3------

          "I am the Devil's advocate..."

D)-------------------------------------------------------
A)--4-------------------------------------------5--4-----
E)--2--2-2-2-2-2-2-2-2-2-2-2-2-2-2-2-2-2-2--2---3--2-----

D)----------------------------------------------5--------
A)----------------------------------------------3--4-----
E)--2-2-2-2-2-2-2-2-2-2-2-2-2-2-2-2-2-2--2---------2-----

D)-------------------------------------------------------
A)-------------------4---2--------------------5---4------
E)--2-2-2-2-2-2--2---2---0----0-0-0-0-0-0-0---3---2------

D)-------------------------9-------
A)--------------------9----7-------
E)---2-2-2--2-2-2-----7------------

D)--------------------------------9---------------
A)--------8-\-7---5---2-----------7----8---2------
E)--0-0---6-\-5---3---0---0-0----------6---0------

D)--------------------------------------------------------
A)-----------8-\-7---------2-/-4---2-/-4----8-\-7---5-----
E)---0-0-0---6-\-5---0-0---3-/-5---3-/-5----6-\-5---3-----

          play 4 times.  then:

D)--------------------------------------------------------
A)--4--------------------------------------------5---4----
E)--2--2-2-2-2-2-2-2-2-2-2-2-2-2-2-2-2-2-2--2----3---2----

D)-----------------------------------------------5--------
A)-----------------------------------------------3---4----
E)--2-2-2-2-2-2-2-2-2-2-2-2-2-2-2-2-2-2--2-----------2----

D)-----------------------------------------------5--------
A)--------------------5---4----------------------3---4----
E)--2-2-2--2-2-2--2---3---2----2-2-2--2-2-2--2-------2----

D)--------------------5----------------------------5------
A)------5---4---------3-----4--------5---4---------3------
E)--2---3---2---2-----------2----2---3---2----2-----------

               ending:

G)-------------9-----4------
D)-------------7-----4------
A)---2---2-----7-----2------
E)---0---0-----0-----2------

G)----4-----
D)----4-----        "OBEY!"
A)----2-----
E)----2-----
  development and support by
dmitry ivanov