rock
 
|tablatures   |lyrics   |discussion forums   |more tabs @ XGuitar.com

Megadeth tabs

The Conjuring bass tab

Artist: Megadeth
Song: The Conjuring
Album: Peace Sells... But Who's Buying
bassist: David Ellefson

Tune down half a step

G------------
D----Rest----
A------------
E------------

Fig 1x6 Verse
G-----------------------------------------------------
D--------------------8--7--5--------------------------
A---------------------------------------------2-------
E--0--0--0--0--0--0----0--0--0--0-0/3-0-0--0----0--1--

("Obey!")
G---------
D---------
A---------
E--0------

Fig 2x3
-------------------------------
D------------------------------
A--0-----------0------------2--
E----2-2-2-2-2----2-2-2-2-2----

Fig 2 ending
G--------------------------
D--------------------------
A--------------------------
E--2-2-2-2-2-1--0-----12\\--

(Repeat Fig 1x4) (No Verse)

Fig 3
("Behold! The Flames Rise")
G-----------------------------------
D-----------------------------------
A-------------------repeat-a lot---------
E--2-2-2-2-2-2-2--------------------

(Repeat Fig 1x4) (No Verse)
(Repeat Fig 3)

Fig 4
("Between it's leaves place..")
G------------------------------------
D------------------------------------
A----------------------repeat-a lot--
E--4-4-4-4-4-4-4-4-4-----------------

Fig 5x4
("Don't call the devil.."
G-----------------------------
D-----------------------------
A----------------------5--7---
E--0--0-0--3-0-2--5--7--------

Fig 6x1
G------------------------------------------------------------------------------------------
D------R-----R------R---------------R----R-----R----------------R-----R-----R------------R-
A---7-----7-----7-----7----------7----7-----7-----7----------7-----7-----7-----7\\-(2)-/7---
E---0-----0-----0-----0-0-0-0-0--0----0-----0-----0-0-0-0-0--0-----0-----0-----0-------0---

Fig 6 continue
G---------------------------------------------
D-----R------R-------------------------Rest---
A--7-----7-----7--5-5--4-4--2-----------------
E--0-----0--------------------3-2-------------

Fig 7x1
G----------------------------------------------
D--Rest-------------------Rest-----------------
A-----------1--0-------------------1--0--------
E-----------------3--0-------------------3--0--

Fig 8x4
G-----------------------------------------------------------
D--------------------2--------------------------------------
A------------1-0-------1-----------1p0---------------1-0----
E--0--0-0-0------3-0-----0--0-0-0------0-0--3h5-3h5------3--

Fig 9
("I am the Devil's Advocate...")
G----------------------------------------------------------------------------------------------------
D----------------------------------------------------------------------------------------------------
A----------------------------------------------------------------------------------------------------
E--2-2-2-2-2-2-2-2-2-2-2-2--3-2--2-2-2-2-2-2-2-2-2--3-2--2-2-2-2-2--2-3-0--0-0-0-0-2-3-2-2-2-2-2--3--

(Repeat Fig 8x1)
(Repeat Fig 9x1)
(Repeat Fig 8x1)
(Repeat Fig 9x1)
(Repeat Fig 8x1)

Fig 10x1 (Ending)
G------------------------------------------------------------------------
D------------------------------------------------------------------------
A------------------------------------------------------------------------
E--2-2-2-2-2-2-2-2-2-2-2-2--3-2--2-2-2-2-2-2-2-2-2--3-2--2-2-2-2-2--3-2--

Fig 10 continue                                         ("Obey..!")
G-------------------------------------------------------------------------------------
D-------------------------------------------------------------------------------------
A-------------------------------------------------------------------------------------
E--2-2-2-2-2--3-2--3-2--3-2--3-2--3--0-----1-------8------8\\--------------------------
  development and support by
dmitry ivanov