rock
 
|tablatures   |lyrics   |discussion forums   |more tabs @ XGuitar.com

Megadeth tabs

Take No Prisoners bass tab

artist: Megadeth
song: Take No Prisoners
album: Rust In Peace
bassist: David Ellefson

Listen for rhythms

Intro - enter with drums
G----------------------------
D----------------------------
A----------------------------
E-2-0-2-3-2-0-2-5--3-2-0-3-2-

Mimic of chromatic riff, also enter with drums
G---------------------------------
D---------------------------------
A---------------------------------
E-2-1-0-3-2-0-2-1-0-3-2-0-3-2-1-0-

Repeat as needed
G--------------------------
D--------------------------
A----------------0-------3-
E-2-2-2-3-3-3-2-----2-2----

Repeat as needed
(Got one chance...Infiltrate them!)
G------------------
D------------------
A----------0-----3-
E-2--3--2-----2----

(And their people)
G------------------------
D------------------------
A--------------2-------5-
E-4-4-4-5-5-4-----4-4----

G-----------------------------------------------------------------------------------------------
D-----------------------------------------------------------------------------------------------
A-----------------------------------------------------------------------------------------------
E-14--12-13--11-12--10-11--9-10-8-9-7--9--6-7--5-6--4-5--3-4-2-3-1--2--0-2-0-2--0-2-0-3-2-0-3-2-

 1st ending
G-----------------------------
D-----------------------------
A-----------------------------
E-2--0-2-0-2--0-2-0-3-2-0-3-2-

 2nd ending
G-----------------------------
D-----------------------------
A-----------------------------
E-2--0-2-0-2--0-2-0-2-0-0-0-0-

  Bass solo
G-----------11------------11------------11------------11-
D-9--11---------9--11---------9--11---------9--11--------
A--------9-------------9-------------9-------------9-----
E--------------------------------------------------------

(Go to war, give em hell)
G----------------------------------------------------------
D----------------------------------------------------------
A------------------------------2-3-2-----------2-3-2-------
E-2-0-2-0-2-0-2-0-3-0-2-0--2-5-------5-2-0-2-5-------5-2-0-

G-------------------------------------------------------
D-------------------------------------------------------
A-----------------------------0-1-0-----------0-1-0-----
E-2-0-2-0-2-0-2-0-3-0-2-0-0-3-------3-0-0-0-3-------3-0-

 (bereft of heart and soul)
G---------------------------------------------------
D-4-3-2---4----4-3-2--------------------------------
A-------4-------------4-2----4-3-2-0------1-0-------
E------------------------------------3--------3-2-1-

 (by the way son)
G------------------------------------------------
D------------------4-2---2-----------------------
A----------------------4---4-0-3-3-3-2-0---2-0---
E-3-2-3-2-3-0-2-0------------------------2-----0-

 (he once had to be)
G------------------------------
D-4--5--4----------------------
A----------4-5-----------------
E--------------5-4-5--4--2-4-5-

G----------------------------------------------------
D----------------------4-2---------------------2-3-4-
A--------------------------4-3-2-0-2-2-2-3-4-4-------
E-3-2-3-0-2-0-3-0-2-0--------------------------------

G-----------------------------------------------------
D-----------------------4-2---2-----------------------
A---------------------------4---4-0-3-3-3-2-0---2-0---
E-3-2-3-0-2-0-3-0-2-0-------------------------2-----0-

 (don't ask what you...)
G------------------
D------------------
A----------0-----3-
E-2--3--2-----2----

 (take no prisoners)
G------------------------------------------------------
D------------------------------------------------------
A----0--3--2--0--2--3-------0--3--2--0-----------------
E-2----------------------2--------------3--2-2-0-2-2-0-

G---------------------|-----------
D---------------------|---------4-
A---------------------|-----------
E-2--2--0-2--2--0-----|-2--2-0----
The end.
  development and support by
dmitry ivanov