rock
 
|tablatures   |lyrics   |discussion forums   |more tabs @ XGuitar.com

Megadeth tabs

Sin guitar tab

SIN
[Megadeth - Cryptic Writings]
Transcribed by Mark Yeary
Five Magics - http://www.nebula.on.ca/heer/fivemagics/index.html


Standard Tuning

D)----------------------------
A)-----1-/-4--4-----2---2-----
E)--0--2-/-5-----3------0-----


G)----------------------------------7----9------
D)----------------------------------7----9------
A)-----1-/-4--4-----2---2-----------5----7------
E)--0--2-/-5-----3------0--0-0-0-0--------------


Repeat a few times, then the chorus...


D)--------------------------------3--5--5------
A)-----------4--5------------3----1--3--3------
E)-0-0-0-0---2--3--3-2-3-2---1-----------------


D)---------------------------------------------
A)-----------4--5------------6----5--6--5------
E)-0-0-0-0---2--3--3-2-3-2---4----3--4--3------


D)--------------------------------3--5--5------
A)-----------4--5------------3----1--3--3------
E)-0-0-0-0---2--3--3-2-3-2---1-----------------


D)---------------------------------------------
A)-----------4--5------------6-----------------
E)-0-0-0-0---2--3--3-2-3-2---4-----4-4-4-4-----

Then:

D)------------------------------5--4--3---------
A)--2--3------2--3------2--3----3--2--1---6-----
E)--0--1-1-1--0--1-1-1--0--1--------------4-----


G)-------------------------------5--4--3------
D)-------------------------------3--2--1------
A)--2--3------2--3------2--3------------------
E)--0--1-1-1--0--1-1-1--0--1------------------


Solo rhythm:

D)---------------------------
A)-----5-4-----3-------------   x4
E)--3-------3-----3--5--6----


D)---------------------------
A)-----7-6-----5-------------   x4
E)--5-------5-----5--7--8----


D)-----7-6-----5-------------
A)--5-------5-----5--7--8----
E)---------------------------


G)-----4-3-----2-------------
D)--2-------2-----2--4--5----
A)---------------------------
E)---------------------------


G)-----6-5-----4-------------
D)--4-------4-----4--6--7----
A)---------------------------
E)---------------------------


Then:

D)--4--2----------------------------
A)---------4--3--2-------------4----
E)-------------------5--2--0---2----


D)---------------------------------------------------
A)-/-5--2--4---/-5-/-5--2--4--/-5--2--4--/-5-/-5--4--
E)-/-3--0--2---/-3-/-3--0--2--/-3--0--2--/-3-/-3--2--


D)---------------------------------------
A)-----------7-8-7---------------7-6-----
E)-0-0-0-0-----------0-0-0-0---5---------


D)---------------------------------------
A)--------------------------------8------
E)-0-0-0-0--5-6-7----0-0-0-0--5-6--------


Play twice, then...


G)---------------------------------------
D)-----------9-10-9--------------9--8----
A)-----------7--8-7-----------7--7--6----
E)-0-0-0-0-----------0-0-0-0--5----------


G)---------------------------------------
D)---------------------------------10----
A)-----------7-8-9-------------7-8--8----
E)-0-0-0-0---5-6-7---0-0-0-0---5-6-------


That's all...enjoy!

Mark
JCPose@aol.com
  development and support by
dmitry ivanov