rock
 
|tablatures   |lyrics   |discussion forums   |more tabs @ XGuitar.com

Megadeth tabs

Silent Scorn guitar tab

Megadeth - Silent Scorn

Guitar 1 Riffs (acoustic):
e|---------------------------------------------------------------------------------|
B|---------------------------------------------------------------------------------|
G|-------0-----0---------0-----0---------0-----0---------0-----0---------0-----0---|
D|-----2---4-2---2-----2---4-2---2-----2---4-2---2-----2---4-2---2-----2---4-2---2-|
A|---2---------------2---------------3---------------3---------------4-------------|
E|-0---------------0---------------0---------------0---------------0---------------|

|-------------------------------------------------|
|-------------------------------------------------|
|-------0-----0---------0-----0---------0-------0-|
|-----3-----4---4-----2---4-2---2-----2-------2---|
|---1-----2---------2---------------4-------3-----|
|-0---------------0---------------0-------0-------|

|---------------------------------------------|
|---------------------------1-------0-------0-|
|-------0---------0-------2-------2-------0---|
|-----2---------0-------2-------1-------2-----|
|---2---------2-----2-0-------2-------3-------|
|-0-------2-3---------------------------------|


Guitar 2 (distorted)
|-------------------------------------------------7-5-3-2-5-3-2---0-|
|---5---7^--5~~---------7^--5~~-------7^-5----------------------3---|
|-4---------------4-5~~----------5-4------   5-7--------------------|
|-------------------------------------------------------------------|
|-------------------------------------------------------------------|
|-------------------------------------------------------------------|

|-----3~------2~------0---------------------------------------------|
|-0h1-----0h1-----0h1---3-1-3---------------------------------------|
|-------------------------------------------0---------------0-------|
|---------------------------------------2-4---4-2-4-2p0-2-4---4-2-4-|
|-----------------------------2-2p0h2-2-----------------------------|
|-------------------------------------------------------------------|

|-------------------------------------------------------------------0-----|
|-----------------------------------------------------------------3---1p0-|
|-------------------------------0--------------------------2h4h5----------|
|-----------2-4-5-4-2-4-2p0-2-4---4-2-4-------------2h4h5-----------------|
|-3-3p2h3-3------------------------------4-4p3h4-4------------------------|
|-------------------------------------------------------------------------|

|-----------------------------|
|-----------------------------|
|-3~~--2~~-0---0--------------|
|------------2---2-2~~--------|
|---------------------4~~-3~~-|
|-----------------------------|

|-----------------------------------------------------------------------------|
|-----------------------------------------------------------------------------|
|-9--11-11~---16-14---16-17-16-14-12--9---11-12----16-14---16-9---------------|
|----------------------------------------------------------------------7h9h10-|
|---------------------------------------------------------------7h9h10--------|
|-----------------------------------------------------------------------------|

|----------------------------------------12~----13-14~~--19-17~--19-20~~-|
|------------------------------------------------------------------------|
|-9~~---11-12~~--16-14~~--16-17-16-14-12---------------------------------|
|------------------------------------------------------------------------|
|------------------------------------------------------------------------|
|------------------------------------------------------------------------|
  development and support by
dmitry ivanov