rock
 
|tablatures   |lyrics   |discussion forums   |more tabs @ XGuitar.com

Megadeth tabs

Seven bass tab

artist: Megadeth
song: Seven
album: Risk
bassist: David Ellefson

         Full of greed...
G:------|---------------------------------------------------r
D:------|---------------------------------------------------e
A:-17\\7-|---------------------------------------------------s
E:------|-0--10-9-10-10-0--0--10-9-10-10-0--0--10-9-10-10-0-t

---------------------------------------------------r----------------r----------------r
---------------------------------------------------e----------------e----------------e
---------------------------------------------------s----------------s----------------s
-0--10-9-10-10-0--0--10-9-10-10-0--0--10-9-10-10-0-t-0-10-9-10-10-0-t-0-10-9-10-10-0-t

------------------------------------------------|-------------|-------------|---------------------------------|
------------------------------------------------|-------------|-------------|-------------------------9-7-----|
------------------------------------------------|-------------|-------------|---------------------5-7-----9-7-|
-0-10-9-10-10-0--0-10-9-10-10-0--0-10-9-10-10-0-|-1-1-2-2-3-3-|-5-5-5-5-5-5-|-7-7-7-7-7-7-7-7--7--------------|

Deep fears that drive us...
------------------------------------------------------------------------------------------------
------------------------------------------------------------------------------------------------
------------------------------------------------------------------------------------------------
-0-2-3-5-3--0-0--0-0-0--0-0----7-5-3-5-3--0-0--0-0-0--0-0--10-7-5-7-5--3-3--3-3-3--3-3--0-2-3-5-

----------------r----------------r-----------------------------------------------------------r
----------------e----------------e-----------------------------------------------------------e
----------------s----------------s-----------------------------------------------------------s
-0-10-9-10-10-0-t-0-10-9-10-10-0-t-0-0-0-0-0--10-9-10-10-0--0--10-9-10-10-0--0--10-9-10-10-0-t

---------------------------------------------------r----------------r----------------r
---------------------------------------------------e----------------e----------------e
---------------------------------------------------s----------------s----------------s
-0--10-9-10-10-0--0--10-9-10-10-0--0--10-9-10-10-0-t-0-10-9-10-10-0-t-0-10-9-10-10-0-t

------------------------------------------------|-----|---------|---------------------------------|
------------------------------------------------|-----|---------|-------------------------9-7-----|
------------------------------------------------|-----|---------|---------------------5-7-----9-7-|
-0-10-9-10-10-0--0-10-9-10-10-0--0-10-9-10-10-0-|-2-2-|-5-5-5-5-|-7-7-7-7-7-7-7-7--7--------------|

Deep fears that drive us...
---------------------------------------------------------------------------------------
---------------------------------------------------------------------------------------
---------------------------------------------------------------------------------------
-0-2-3-5-3--0-0--0-0-0--0-0----7-5-3-5-3--0-0--0-0-0--0-0--10-7-5-7-5--3-3--3-3-3--3-3-

---------------------------------------------------------------------------------------------------------
---------------------------------------------------------------------------------------------------------
---------------------------------------------------------------------------------------------------------
-0-2-3-5--0-2-3-5-3--0-0--0-0-0--0-0--7-5-3-5-3--0-0--0-0-0--0-0---10-7-5-7-5--3-3--3-3-3--3-3---0-2-3-5-

----------------------------|-----------|-----------|-------|---|
----------------------------|-----------|-----------|-------|---|
-------2--------------------|-----3-----|-----5-----|-------|---|
-2-4-5---5--2-2--2-2-2--2-2-|-5-5---3-5-|-7-7---5-7-|-0-0-7-|-7-|

Ending
|--------------------------------------------------------------------------------
|--------------------------------------------------------------------------------
|--------------------------------------------------------------------------------
|-12-12-12--12-12-12--12-12-12--12-12-12--1O-1O-1O--1O-1O-1O--1O-1O-1O--1O-1O-1O-

--------------------------------------------------------|
--------------------------------------------------------|
--------------------------------------------------------|
-5-5-5--5-5-5--3-3-3--3-3-3--0-0-0--0-0-0--0-0-0--0-0-0-|

|---------------------------------------------|
|---------------------------------------------|
|---------------------------------------------|
|-10-10-10--5-5-5--0-0-0--0-0-0--0-0-0--0-0-0-|

|----------|
|----------|
|----------|
|-10--5--0-|
  development and support by
dmitry ivanov