rock
 
|tablatures   |lyrics   |discussion forums   |more tabs @ XGuitar.com

Megadeth tabs

Return To Hangar guitar tab

Return To Hangar - Megadeth
by greg delgiudice

  Intro
 fit chords to rhythm accordingly
E-----|-----|
B-----|-----|
G-----|-----|
D--2--|--5--|
A--2--|--5--|
E--0--|--3--|


  Verse
 fit chords to rhythm accordingly
E-----|-----|-----|-----|-----|
B-----|-----|-----|-----|-----|
G-----|--5--|--2--|--3--|--4--|
D--2--|--5--|--2--|--3--|--4--|
A--2--|--3--|--0--|--1--|--2--|
E--0--|-----|-----|-----|-----|


   2X
E----------------------------------|--------------------
B----------------------------------|--------------------
G----------------------------------|--------------------
D----------------------------------|--------------------
A--2-----2---------1-----1---------|--2-0-----2-0-------
E----3-0---0-0-0-0---3-0---0-0-0-0-|------3-2-----3-2---



   3X
E--------------------------------------------------------------
B--------------------------------------------------------------
G--------------------------------------------------------------
D--4-5-2---------4-5-2---------4-5-2---------4-5-7-5--9-10-9---
A--------2-2-3-2-------2-2-3-2-------2-2-3-2-------------------
E--------------------------------------------------------------


  Harmony part
  on 3X
E----------------------------------------------------------------------------
B--10-12-8----------10-12-8----------10-12-8---------10-12-13-12--16-17-16---
G----------9-7-9-7----------9-7-9-7----------9-7-9-7-------------------------
D----------------------------------------------------------------------------
A----------------------------------------------------------------------------
E----------------------------------------------------------------------------


  Last time
 Guitar 1
E------------------------------------------------------------------
B------------------------------------------------------------------
G-------------------------------------4----------------------------
D--4-5-2---------4-5-2----------7-5-2---4-5-8-7-9-10-9-5-4-5-4-----
A--------2-2-3-2-------2-2-3-2-------------------------------------
E------------------------------------------------------------------
|
|
|Guitar 2
E-------------------------------------------12---------------------------------------
B--10-12-8---------10-12-8---------13-12-10----12-13-15-13-16-17-16-13-12-13-12--12--
G----------9-7-9-7---------9-7-9-7---------------------------------------------------
D------------------------------------------------------------------------------------
A------------------------------------------------------------------------------------
E------------------------------------------------------------------------------------

  Guitar 1
  4X
E---------
B---------
G---------
D--2------
A--2------
E--0------



  fast double picking
E-------
B-------
G-------
D-------
A-------
E--0----

  the hits during the double picking part
E-------
B-------
G-------
D--5----
A--5----
E--3----


E------------------------------------
B------------------------------------
G------------------------------------
D--2---4---5---7---9---2---10--9-----
A--2---4---5---7---9---2---10--9-----
E--0---2---3---5---7---0---8---7-----
  development and support by
dmitry ivanov