rock
 
|tablatures   |lyrics   |discussion forums   |more tabs @ XGuitar.com

Megadeth tabs

Rattlehead bass tab

Artist: megadeth
song: Rattlehead
album: Killing is my business... and business is good
bassist: David Ellefson

verse:

D)-0-7-0-0-5-0-0-8-0-0-7-0-0-5-0-0--
A)----------------------------------
E)----------------------------------

D)-0-7-0-0-5-0-0-8-0-0-7-0-0-5-0-0--
A)----------------------------------
E)----------------------------------

D)------------------------------------------------------
A)-3-3-3-3-3-3-3-3-3-3-3-3-3-3-3-3-1-1-1-1-1-1-1-1-3-3-3
E)------------------------------------------------------

last time, finish with:

D)--------------------
A)--1--0--------------
E)---------3--2--1----

then:

D)------------------------------------------------------
A)------------------------------------------------------
E)-0-0-0-0-0-0-0-1-0-0-0-0-0-0-2-0-0-0-0-0-0-3-0-0-0-0-0


"Rattlehead!"

D)-0-7-7-7-5-5-5--7-h-8-p-7-p-5--7-p-5--------
A)--------------------------------------------
E)---------------------------------------8----


"you...your head"

G)------------------------------------------------
D)------------------------------------------------
A)-5-5-5--8--5-5--5-5-5--10-\\--8--5-5-5-5-5--8----
E)------------------------------------------------

G)---------------------------
D)---------------------------
A)-5-5--5--x-x-x--3--3-/-5---
E)---------------------------

G)---------------------------------------------
D)---------------------------------------------
A)-5-5--8--5-5-5-5-5--10-\\--8--5-5-5-5-5--8----
E)---------------------------------------------

G)----------------------------------
D)--------5-/-6-\\-5-----------------
A)-5-5-5---------------3--3-/-5-----
E)----------------------------------

solo rhythm:

G)----------------5-h-7-p-5-------------------------
D)--7-7--0-0-0-0-------------7-7--0-0-0-0--- etc.---
A)--------------------------------------------------
E)--------------------------------------------------

"there's someone back in the shadows":

G)----------------5-h-7-p-5------------------
D)--7-7--0-0-0-0-------------7-7--0-0-0-0----
A)-------------------------------------------
E)-------------------------------------------

G)--5-h-7-p-5----------------5-h-7-p-5---------
D)-------------5-5--0-0-0-0-------------7-7----
A)---------------------------------------------
E)---------------------------------------------

G)-------------------
D)--0-0--3-----------
A)-----------3--5----
E)-------------------

then:

D)--------------------------------------------------
A)--5------3--5-------------------------------------
E)-----4---------4-4-4-4-4-4-4-4-4-4-4-4-4-4-4-4----
  development and support by
dmitry ivanov