rock
 
|tablatures   |lyrics   |discussion forums   |more tabs @ XGuitar.com

Megadeth tabs

Promises guitar tab

This song is tuned in Drop D.


Okay here is my first tab, what I have is correct but I don't have all the parts of the song.

Intro

|---------------5-----------------------------------------------   x8
|---------------6-----------------------------------------------
|--------------------7------------------------------------------
|---------------------------------------------------------------
|---------------------------------------------------------------
|---------------------------------------------------------------


Singing starts. . .

|---------------5---------I-------6---------I------6--------------I------5-----------
|---------------6---------I-------5---------I------5--------------I------7-----------
|--------------------7----I-----------7-----I----------6----------I------5-----------
|-------------------------I-----------------I---------------------I------------------
|-------------------------I-----------------I---------------------I------------------
             x4                          x4                      x4                          x4


Then there's some weird accoustic stuff going on but it's hard to hear with the string section.

Chorus

|------------------------------------------------------------------------
|------------------------------------------------------------------------
|-----------------------------------------------8--8--8---7-------------
|-----------------------------------------------8--8--8---7-------------
|------5-------5----1------1---3------3---------6--6--6---5------------
|------5-------5----1------1---3------3--------------------------------

I'm afraid that's all I can tab.  I hope that is a good start and I hope my tab worked out okay.
  development and support by
dmitry ivanov