rock
 
|tablatures   |lyrics   |discussion forums   |more tabs @ XGuitar.com

Megadeth tabs

Prince Of Darkness guitar tab


Prince Of Darkness
Megadeth
Written by: Mustaine/Friedman

Transcribed by: IcedDeth - The Megadeth Sanctuary
		kweber@netwrx.net
		http://personal.netwrx.net/kweber/index.html


    Drop D Tuning
	    Bend	  Let Ring
E--0----------------|-----------7--------------------------------------------------
B----0--------------|--------6-----------------------------------------------------
G------2/\----------|-----7--------------------------------------------------------
D-------------------|--------------------------------------------------------------
A-------------------|--------------------------------------------------------------
D-------------------|--------------------------------------------------------------


	I am insidious.......
E----------------------------------------------------------------
B----------------------------------------------------------------
G----------------------------------------------------------------
D----------------------------------------------------7-----------
A-----5----5----5/----5/----5-----5----5----5----5---5-----------
E---0----0----0-----0-----0-----0----0----0----0-----0-----------


	I strip you of pride.....
E----------------------------------------------------------------
B---3----1----3----6---------------------------------------------
G---2----2----4----4---------------------------------------------
D---0----3----5----6---------------------------------------------
A---0----3----5----5---------------------------------------------
E---0------------------------------------------------------------


E--------------------------------------------------
B--------------------------------------------------
G--------------------------------------------------
D--0-0--0--0--0--0--0--0--0--0--0--0--0--0--0--0---
A--0-0--0--0--0--0--0--0--0--0--0--0--0--0--0--0---
D--0-0--0--0--0--0--0--0--0--0--0--0--0--0--0--0---



E---------------------------------------------------
B---------------------------------------------------
G---------------------------------------------------
D---0--0--0--0--0--0--0--0--0--0--0--0--0--0--0--0--
A---0--0--0--0--0--0--0--0--0--0--0--0--0--0--0--0--
D---0--0--0--0--0--0--0--0--0--0--0--0--0--0--0--0--




E----------------------------------------------------------------
B----------------------------------------------------------------
G---------------------------------------------------5------------
D--0-0-0---0--0--0--0--0-----1---0-0---0--0--0--0---5---6--5--3--
A--0-0-0---0--0--0--0--0--3--1---0-0---0--0--0--0---3---6--5--3--
D--0-0-0---0--0--0--0--0--5--1---0-0---0--0--0--0-------6--5--3--


    Riff A
    Repeat 3 X
E----------------------------------------------------------------
B----------------------------------------------------------------
G----------------------------------------------------------------
D--0-0---0--0--0--0--0--0--1----0-0----0--0--0--0---5------------
A--0-0---0--0--0--0--0--0--1----0-0----0--0--0--0---3---6--5--3--
D--0-0---0--0--0--0--0-----1----0-0----0--0--0--0-------6--5--3--



    Riff B
E------------------------------------------------------------------------
B------------------------------------------------------------------------
G------------------8-8--8-8-8--8-8-8--8-8-8--8-8-8--8-8-8--8-8-8--8-8-8--
D--0-0---0--0--X---8-8--8-8-8--8-8-8--8-8-8--8-8-8--8-8-8--8-8-8--8-8-8--
A--0-0---0--0--X---6-6--6-6-6--6-6-6--6-6-6--6-6-6--6-6-6--6-6-6--6-6-6--
D--0-0---0--0--X---------------------------------------------------------


    Chorus
    Repeat 6 X
    Guitar 1
E----------------------------------
B----------------------------------
G----------------------------------
D--0----3----5----6----5-6-7-3-----
A--0----3----5----6----5-6-7-3-----
D--0----3----5----6----5-6-7-3-----
|
|
|   
E---------------------------------------------------------------------
B---------------------------------------------------------------------
G---------------------------------------------------------------------
D----0---0--0---0----0---0--0---0----0---0--0---0----0---0------------
A---------------------------------------------------------------0-----
E--0---0------0----3---3------3----5---5------5----6---6----5-6---3---


			      ------------  ----------------
    Repeat 3X		      |	1st ending  |  2nd ending
    P.M....       P.M....     |  P.M....    |
E-------------------------------------------|------------------
B-------------------------------------------|------------------
G-------------------------------------------|------------------
D---0-0-0-0-0-----0-0-0-0-0-----0-0-0-0-0---|------------------
A---0-0-0-0-0-----0-0-0-0-0-----0-0-0-0-0---|--0--3--2--1------
D---0-0-0-0-0-----0-0-0-0-0-----0-0-0-0-0---|--0--3--2--1------



Riff A 3X

Riff B

Chorus

Interlude (Viola)




E----------------------------------------------------------
B----------------------------------------------------------
G--8-8--8-8-8--8-8-8--8-8-8--8-8-8--8-8-8--8-8-8--8-8-8----
D--8-8--8-8-8--8-8-8--8-8-8--8-8-8--8-8-8--8-8-8--8-8-8----
A--6-6--6-6-6--6-6-6--6-6-6--6-6-6--6-6-6--6-6-6--6-6-6----
D----------------------------------------------------------


	Repeat 2X
E---------------------------------------------------------------------------
B---------------------------------------------------------------------------
G---------------------------------------------------------------------------
D--0-0-0-0-0---0-0-0-0-0---0-0-0-0-0-----0-0-0-0-0---0-0-0-0-0---0--3--2--1-
A--0-0-0-0-0---0-0-0-0-0---0-0-0-0-0-----0-0-0-0-0---0-0-0-0-0---0--3--2--1-
D--0-0-0-0-0---0-0-0-0-0---0-0-0-0-0-----0-0-0-0-0---0-0-0-0-0---0--3--2--1-
|
|
|				    Let Ring
E----------------------------------------------------
B-------------------------------------------15-------
G---------------------------------------14-----------
D-----------------------------------18---------------
A----------------------------------------------------
D----------------------------------------------------


   Repeat 3X
E-----------------------------------------
B-----------------------------------------
G-----------------------------------------
D--0-0-0-0-0---0-0-0-0-0---0--3--2--1-----
A--0-0-0-0-0---0-0-0-0-0---0--3--2--1-----
D--0-0-0-0-0---0-0-0-0-0---0--3--2--1-----


   Repeat 2X
E--------------
B--------------
G--------------
D--0--3--2--1--
A--0--3--2--1--
D--0--3--2--1--




   Guitar Solo 1

E---------------------------------------------------11-10-----------------------
B--------------------------------------------------------------------10-9/10\9--
G---------------------------------------------8-7----------7878787--------------
D-------7-6/7\6/7\676767676---3/4\3---------------------------------------------
A---5--------------------------------5/6\5--------------------------------------
D-------------------------------------------------------------------------------



E------------------------------------------------------17-15----------------------
B---13-12/13\12--13-12--14-13--16-15--15-16-13-12-10---------17-16-14-------------
G---------------------------------------------------------------------------------
D---------------------------------------------------------------------------------
A---------------------------------------------------------------------------------
D---------------------------------------------------------------------------------



E--17-15-------------------------------------
B--------17-16-14----------------------------
G-----------------16-15----------------------
D-----------------------16-15/16\15/16\15----
A--------------------------------------------
D--------------------------------------------



Chorus 4X



			   ---------------------  -------------
   Repeat 2X		   |1.			  | 2.
E------------------------------------------------|---------------
B------------------------------------------------|---------------
G--0-0-0-0-0---0-0-0-0-0---0-0-0-0-0---0-0-0-0-0-|--0--3--2--1---
D--0-0-0-0-0---0-0-0-0-0---0-0-0-0-0---0-0-0-0-0-|--0--3--2--1---
D--0-0-0-0-0---0-0-0-0-0---0-0-0-0-0---0-0-0-0-0-|--0--3--2--1---


   Repeat 3X
E---------------------------------  -----------
B---------------------------------  -----------
G---------------------------------  -----------
D--0--3--2--1-----0--4--3--2--1---  0--3--2--1-
A--0--3--2--1-----0--4--3--2--1---  0--3--2--1-
D--0--3--2--1-----0--4--3--2--1---  0--3--2--1-



E--------------------
B--------------------
G--------------------
D--0--4--3--2--1-----
A--0--4--3--2--1-----
D--0--4--3--2--1-----


  Guitar Solo 2

  1 1/2 Steps      2 Steps  
E---------------------------------------------------------------------------------
B---9/-------X-----12/------------------------------------------------------------
G--10/-------X-----13/------17-14-14-14-14-14-14-14-14-17-14-14-14-14-14-14-14-14-
D---------------------------------------------------------------------------------
A---------------------------------------------------------------------------------
D---------------------------------------------------------------------------------



E------------------------------------------------------------------
B------------------------------------------------------------------
G--19-14-14-14-14-14-14-14-14-19-14-14-14-14-14-14-14-14-----------
D------------------------------------------------------------------
A------------------------------------------------------------------
D------------------------------------------------------------------



E------------------------------------------------------------------
B------------------------------------------------------------------
G--17-14-14-14-14-17-14-14-14-14-19-14-14-14-14-19-14-14-14-14-----
D------------------------------------------------------------------
A------------------------------------------------------------------
D------------------------------------------------------------------



E------------------------------------------------------------------
B------------------------------------------------------------------
G--17-14-14-14-14-17-14-14-14-14-19-14-14-14-14-19-14-14-14-14-----
D------------------------------------------------------------------
A------------------------------------------------------------------
D------------------------------------------------------------------



E--15-13-12-10--15-13-12-10--16-14-13-11--16-14-13-11-----
B---------------------------------------------------------
G---------------------------------------------------------
D---------------------------------------------------------
A---------------------------------------------------------
D---------------------------------------------------------



E--17-15-14-12--17-15-14-12--18-16-15-13--18-16-15-13-----
B---------------------------------------------------------
G---------------------------------------------------------
D---------------------------------------------------------
A---------------------------------------------------------
D---------------------------------------------------------


							Pick Slide
E--19-17-16-12--19-17-16-12--20-18-17-13--20-18-17-13-------------
B-----------------------------------------------------------------
G-----------------------------------------------------------------
D-----------------------------------------------------------------
A-----------------------------------------------------------------
D-----------------------------------------------------------------



E----------------------------
B--10/---9/---8/---7-8-6-----
G--12/--12/--11/-------------
D----------------------------
A----------------------------
D----------------------------






  development and support by
dmitry ivanov