rock
 
|tablatures   |lyrics   |discussion forums   |more tabs @ XGuitar.com

Megadeth tabs

Prince Of Darkness bass tab

Song: Prince of Darkness
Band: Megadeth
Tabbed by Robin Soderstrom

Tuning: Drop-D

Intro
G|-------------------------------------------|
D|*-----------------------------------------*|
A|*-----------------------------------------*|
D|--0-0-0-0-0-0-7-6-5-3-0-0-0-0-0-0-7-6-5-0--|

I am more powerful...
G|----------------------|
D|*--------------------*|
A|*--------------------*|
D|--0-0-0--0-0-0-0-0-0--|

Verse
G|-----------------------------------------|
D|*---------------------------------------*|
A|*---------------------------------------*|
D|--0-0--0-0-0-0-5-1-0-0--0-0-0-0-6-5-3-0--|

Chorus
G|-------------------------------------------------|
D|-------------------------------------------------|
A|-------------------------------------------------|
D|-0-0-0-0-0-3-3-3-3-3-5-5-5-5-5-6-6-6-6-6-3-5-6-3-|

G|-----------------------------------|
D|*---------------------------------*|
A|*---------------------------------*|
D|--1-1-1-1-0--1-1-1-1-0--1-1-1-1-0--|

G|---------------------------|
D|---------------------------|
A|---------------------------|
D|-0-4-0-3-0-2-0-1-0-3-0-2-1-|

A good and heavy song from a good and heavy band!
  development and support by
dmitry ivanov