rock
 
|tablatures   |lyrics   |discussion forums   |more tabs @ XGuitar.com

Megadeth tabs

Poison Was The Cure guitar tab

POISON WAS THE CURE
[Megadeth - Rust In Peace]
Transcribed by Christopher Heer
Five Magics - http://www.nebula.on.ca/heer/fivemagics/index.html


Standard Tuning

Intro
------------------------------------------
------------------------------------------
--2-------------------------------------2-
--2-------------------------------5-5---2-
--0-0-0-0-0-0-0-0-0-0-0-0-0-0-0-0-3-4-0-0-
------------------------------------------

Verse
------------------------------------------
------------------------------------------
--------------------------------7p5-5---4-
---7p5--5---5h7p5-5------7p5-5-----7-7p5--
-0-----0-6h7-----7-76p50----7-------------
------------------------------------------

Bridge
--------------------------------
--------------------------------
----------------2---------------
-3--4--5--6-5-4-2---------------
-3--4--5--6-5-4-0---------------
-1--2--3--4-3-2-----------------

--------------------------------
--------------------------------
--------------5-4---------------
-3--4--5--6-5-5-4---------------
-3--4--5--6-5-3-2---------------
-1--2--3--4-3-------------------

----------------------------------------------------------------------
----------------------------------------------------------------------
----------------------------------------------------------------------
-3--4--5--6-5-4-4--5--6--7--6-5-5--6--7--8--7--8--7-6-7--8--9-7--8--9-
-3--4--5--6-5-4-4--5--6--7--6-5-5--6--7--8--7--8--7-6-7--8--9-7--8--9-
-1--2--3--4-3-2-2--3--4--5--4-3-3--4--5--6--5--6--5-4-5--6--7-5--6--7-

Verse(last)
------------------------------------------------------
------------------------------------------------------
-12-------------1211-------------1110-------------109-
-10-------------10-9--------------9-8--------------87-
----000000000000-----000000000000-----000000000000----
------------------------------------------------------

-------------------------------------------------
-------------------------------------------------
-98-------------87-------------76-------------65-
-76-------------65-------------54-------------43-
----000000000000---000000000000---000000000000---
-------------------------------------------------

Outro
------------------------------------------------------------------
------------------------------------------------------------------
-2---------------5---------------7---------------10-------9-------
-2---------------5---------------7---------------10-------9-------
-0-000000000000003-000000000000005-00000000000000-8-0000007-000000
------------------------------------------------------------------

  development and support by
dmitry ivanov