rock
 
|tablatures   |lyrics   |discussion forums   |more tabs @ XGuitar.com

Megadeth tabs

Poison Was The Cure bass tab

artist: Megadeth
song: Poison was the Cure
Album: Rust In Peace
Bassist: David Ellefson

Intro
G--------------------------------------------------------------------
D-2-1--------------2-1------2-1--------------------------------------
A-3-2-0-0-0-0-0-0--3-2-0-0--3-2-0-0--3-4-0-0-0-0-0-0-0-0-0-0-0-0-0-0-
E--------------------------------------------------------------------

 with guitars in
G-----------------------------------------
D-----------------------------------------
A-0--0--2---3--5--3--2--0--0-2--3---5-6-7-
E-----------------------------------------

listen to rhythm
G-----------------------------------------------------------------------
D-----------------------------------------------------------------------
A-------------0-----------3-2-------------------------------------------
E-1-2-3-4-3-2---1-2-3-4-3-----1-2-3-4-3-2-2-3-4-5-4-3-3-4-5-6-5-4-5-6-7-

G-----------------------------------------------------------------------
D-----------------------------------------------------------------------
A-3-0-0-0-0-0-0-0-0-0-0-0-0-3-2-0-0-0-0-0-0-0-0-0-0-0-0-2-1-0-0-0-0-0-0-
E-----------------------------------------------------------------------

G-------------------------------------------------------------------------
D-------------------------------------------------------------------------
A-0-0-0-0-0-0-1-0-0-0-0-0-0-0-0-0-0-0-0-0-0---0-0-0-0-0-0-0-0-0-0-0-0-----
E-------------------------------------------4-------------------------4-3-

G---------------------------------------------------------
D---------------------------------------------------------
A-0-0-0-0-0-0-0-0-0-0-0-0-----0-0-0-0-0-0-0-0-0-0-0-0-----
E-------------------------3-2-------------------------2-1-
That's all there is for now, the rest of the song repeats a lot of
this but changes key.
  development and support by
dmitry ivanov