rock
 
|tablatures   |lyrics   |discussion forums   |more tabs @ XGuitar.com

Megadeth tabs

Paranoid guitar tab

PARANOID
[Megadeth - Hidden Treasures]
Transcribed by Christopher Heer
12/27/97
Five Magics - http://www.nebula.on.ca/heer/fivemagics/index.html


Standard Tuning

Intro
--------------------------------------------------------
--------------------------------------------------------
-9--9--9--------7h9-----7h9--9--9--9-------7h9-----7----
-9--9--9----7h9-----7h9------9--9--9---7h9-----7h9---9--
-7--7--7---------------------7--7--7--------------------
--------------------------------------------------------

Verse

-----------------------------------------------------------
-------------------------------------------------------8h9-
-------------------------------------------------7---------
-9-------------------------------7---------------5-7-9-----
-7-7-7-7-7-7-7-7-7-7-7-7-7-7-7-7-5-5-5-5-5-5-5-5---5-7-----
-----------------------------------------------------------

Interlude

-------------------------------------------------------------
-------------------------------------------------------------
-9------------5------7---------------------------------------
-9------------5------7---------------------------------------
-7------------3------5-------7-7-7-7-7-7-7-7-7-7-7-7-7-7-7-7-
-------------------------------------------------------------

Chorus

--------------------------------------------------
--------------------------------------------------
-9------------7-----------9-----------7-----------
-9------------7-----------9-----------7-----------
-7------------5-----------7-----------5-----------
--------------------------------------------------

  development and support by
dmitry ivanov