rock
 
|tablatures   |lyrics   |discussion forums   |more tabs @ XGuitar.com

Megadeth tabs

Paranoid bass tab

Paranoid - Megadeth
Jon Craven (nojnevarc@hotmail.com)
(enters @ 0:05)

Riff 1: (x2)
G:-------------|-----7h9-----7h9-|
D:-------------|-7h9-----7h9-----|
A:-7--7-7--7-7-|-----------------|
E:-------------|-----------------|

Riff 2: (x2)
G:-----------------|-----------------|-----------------|----------7h9-|
D:-----------------|-----------------|-----------------|-5------------|
A:-7-7-7-7-7-7-7-7-|-7-7-7-7-7-7-7-7-|-5-5-5-5-5-5-5-5-|----5--7------|
E:-----------------|-----------------|-----------------|--------------|

Riff 3: (x2)
G:-----------------|-----5*-----7*-|-----------------|-----------------|
D:-----------------|---5------7----|-----------------|-----------------|
A:-7-7-7-7-7-7-7-7-|-3------5------|-7-7-7-7-7-7-7-7-|-7-7-7-7-7-7-7-7-|
E:-----------------|---------------|-----------------|-----------------|

Riff 4: (x2)
G:-----------------|-------------7h9-|-----------------|----------7h9-|
D:-----------------|---------7h9-----|-----------------|-5------------|
A:-7-7-7-7-7-7-7-7-|-7-7-7-7---------|-5-5-5-5-5-5-5-5-|----5--7------|
E:-----------------|-----------------|-----------------|--------------|

Riff 5: (x2)
G:---9---9---9---9-|---9---9---9---9-|---7---7---7---7-|---7---7---7---7-|
D:-----------------|-----------------|-----------------|-----------------|
A:-7---7---7---7---|-7---7---7---7---|-5---5---5---5---|-5---5---5---5---|
E:-----------------|-----------------|-----------------|-----------------|

Riff 2 (x2)
Riff 4 (x2)
Riff 2 (x4)
Riff 4 (x2)
Riff 2 (x2)
Riff 3 (x2)
Riff 4 (x2)
Riff 2

End:
G:-----------------|-------------7h9-|-----------------|------------|
D:-----------------|---------7h9-----|-----------------|-5----------|
A:-7-7-7-7-7-7-7-7-|-7-7-7-7---------|-5-5-5-5-5-5-5-5-|----5-----R-|
E:-----------------|-----------------|-----------------|-------0----|

Break till end
  development and support by
dmitry ivanov