rock
 
|tablatures   |lyrics   |discussion forums   |more tabs @ XGuitar.com

Megadeth tabs

One Thing guitar tab

ONE THING
[Megadeth - Cryptic Writings]
Transcribed by Christopher Heer & Michael James
Five Magics - http://www.nebula.on.ca/heer/fivemagics/index.html


Standard Tuning

Intro
-----------------------------------
-----------------------------------
---------------------------5-------
-7-----7---7---7-----7-----5-------
-0-0-0-0-0-0-0-0-0-0-0-0-0---------
-----------------------------------


Verse & Chorus           bend
-----------------------------------------
-------------------------7^-5-7-5--------
-------------------------7^-5-7-5-7-5----
-7-----7---7---7-----7------------7-5----
-0-0-0-0-0-0-0-0-0-0-0-0-----------------
-----------------------------------------

Pre-Chorus
--------------------------------
--------------------------------
-------5-----7-5-----7-5--------
-7---7-5-----7-5-----7-5----7---
-0-0-0-----0-------0--------0-0-
--------------------------------

End of Pre-Chorus fill
---------------------
---------------------
-----5---------------
-5---5---5-4-3-------
-5---3---5-4-3-------
-3-------3-2-1-------

Chorus
---------------------------------------------
---------------------------------------------
---------------------------------------------
---------------------------------------------
-----2-----------2-----------2-----------2---
-0-3-0---x-x-0-3-0---x-x-0-3-0---x-x-0-3-0---

Bridge
---------------------------------
---------------------------------
---------2-------4-------7---6---
-4-------2-------4-------7---6---
-4-------0-------2-------5--54---
-2-------------------------------

Solo Rhythm
---------------------------------
---------------------------------
-----------------5-------8---7---
-5-------8-------5-------8---7---
-5-------8-------3-------6--65---
-3-------6-----------------------


Exit Riff
---------------------------------|--------------------------
---------------------------------|--7^-5-7-5--7-5--7-5------
---5-------5-------5-------5-----|--7^-5-7-5--7-5--7-5-5-7--
---5-7-----5-7-----5-7-----5-7---|---------------------5-7--
-0---0---0---0---0---0---0---0---|--------------------------
---------------------------------|--------------------------
  development and support by
dmitry ivanov