rock
 
|tablatures   |lyrics   |discussion forums   |more tabs @ XGuitar.com

Megadeth tabs

Of Mice And Men bass tab

tabbed by doug(appetite_for_destruction69@hotmail.com)
standard tuning

Main riff
|-------------------------------------------------------------|
|-------------------------------------------------------------|
|---------------2-4--5-5-5----5-5--2-2-2--2-0-2-3-2-0---------|
|--0-0--2-2-2------------------------------------------2-2-2--|

Interlude
|-------------------------------------------------------------|
|-------------------------------------------------------------|
|--4--4-3-2--4--4-3-2--4--4-3-2--4--4-3-2--4--4-3-2--4--4-3-2-|
|-------------------------------------------------------------|

Chorus
|------------------------------------------------------------------------|
|---------2---2-4-2----------------2--2-4-2--------------2---2-4-2-------|
|--0--2-4---4------4-3-2---0--2-4---4-----4-3-2---0--2-4---4-------4-3-2-|
|-2-----------------------2----------------------2-----------------------|

|-------------------------4-2-|
|---------2---2-----4-2-------|
|--0--2-4---4---4-2-----4-----|
|-2---------------------------|

Solo
|-------------------------------------------------------------|
|-------------------------------------------------------------|
|--4--4-3-2--4--4-3-2--4--4-3-2--4--4-3-2--4--4-3-2--4--4-3-2-|
|-------------------------------------------------------------|

Outro Chorus
|------------------------------------------------------------------------|
|---------2---2-4-2----------------2--2-4-2--------------2---2-4-2-------|
|--0--2-4---4------4-3-2---0--2-4---4-----4-3-2---0--2-4---4-------4-3-2-|
|-2-----------------------2----------------------2-----------------------|

|-------------------------4-2-|
|---------2---2-----4-2-------|
|--0--2-4---4---4-2-----4-----|
|-2---------------------------|

Ending
|------------|
|------------|
|--4---2-----|
|---------2--|
  development and support by
dmitry ivanov