rock
 
|tablatures   |lyrics   |discussion forums   |more tabs @ XGuitar.com

Megadeth tabs

Moto Psycho guitar tab

Moto Psycho - Megadeth



by greg delgiudice


E----------------------------------------
B----------------------------------------
G----------------------------------------
D----------------------------------------
A-----------------------------1---3-1----
E--13333-13333-13333-13333------3--------


E--------------------------------------------------------------------------
B--------------------------------------------------------------------------
G--------------------------------------------------------------------7-7---
D--------------------------------------------------------------------7-7---
A--66666666666666666666666666666543333333333333333333333333333333333-5-5---
E--------------------------------------------------------------------------


  Chorus
E-----------------------------------
B-----------------------------------
G-----------------------------------
D----------------3-----------3------
A----------------1-----------1-3----
E--3-333-333-333----3-333-33---1----


Original version of Moto Psycho (with Coming Home reprise)

E-------------|-------
B-------------|-------
G-------------|--5----
D--5--4--3--2-|--5----
A--5--4--3--2-|--3----
E--3--2--1--0-|-------
  development and support by
dmitry ivanov