rock
 
|tablatures   |lyrics   |discussion forums   |more tabs @ XGuitar.com

Megadeth tabs

Mechanix guitar tab

The Mechanix : megadeth : killing is my business...

Intro
-------------------------------------------------------------
-------------------------------------------------------------
-------------------------------------------------------------
--4-------5----------------------4-------5-------------------
--2-------3-------4//5---5-------2-------3----------4-5-2----
----------------0-2//3-3-3------------------------0-2-3-0----


-----------------------------------------------------------------
-----------------------------------------------------------------
-----------------------------------------------------------------
---------------------------------------------------------7p5-----
-7-5-7-5-7-5-7-5-7-5-7-5-7-5---5-7-5-7-5-7-5-7-5-7-5---5-----7p5-
-0---0---0---0---0---0---0---7---0---0---0---0---0---7-----------

-------------------------------------------------
-------------------------------------------------
-------------------------------------------------
---------------------------------5-------7---5---
-7-5-7-5-7-5---5-7-5-7-5-7-5---5-3---5---5---3---
-0---0---0---7---0---0---0---7-------3-----------

Verse
----------------------------------------------------------
----------------------------------------------------------
---9---9---9-7-7---9---9---9-5-7---9---9---9-12-9-5---7-5-
---9---9---9-7-7---9---9---9-5-7---9---9---9-12-9-5-5-7-5-
---7---7---7-5-5---7---7---7-3-5---7---7---7-10-7-3-5-5-3-
-00--00--00------00--00--00------00--00--00---------3-----


Chorus
-------------------------------------
-------------------------------------
--9-----9-7-----7-5-----5-4-----x\---
--9-----9-7-----7-5-----5-4-----x\---
--7-----7-5-----5-3-----3-2-----x\---
-------------------------------------

--------------------------------
--------------------------------
--9-----9-7-----7-5-----4-5-----
--9-----9-7-----7-5-----4-5-5-4-
--7-----7-5-----5-3-----2-3-5-4-
----------------------------3-2-

Interlude
-------------------------------------------
-------------------------------------------
-------------------------------------------
-------------------------------------------
-------------------------------------------
-0-0000-0000-0000-0000-0000-0000-0000-0000-

---------------------------------------
---------------------------------------
-------------------------------5---7-5-
-------------------------------5-5-7-5-
-------------------------------3-5-5-3-
-0000-0000-0000-0000-0000-0000---3-----

------------------------------------------------
------------------------------------------------
----------------5\4-4-------------------5---5---
----------------3\2-2-------------------3---3---
------------------------------------------------
-0-0000-0000-000--------0-0000-0000-000---------

  development and support by
dmitry ivanov