rock
 
|tablatures   |lyrics   |discussion forums   |more tabs @ XGuitar.com

Megadeth tabs

Mechanix bass tab

standard tuning

g|---------------------------------|----------------------------|
d|o-------------------------------o|o--------------------------o|
a|o--2--3----------2--3-----------o|o----------------3---5-3---o|
e|--------2/3-3-----------0-2-3-0--|----0-----0--------3-----0--|


g|----------------------------------------------------------------------------------|
d|o---------------------------------------------------------------------------------|
a|o-------7-------7-------7-5-5-------7-------7-------7-3-5-------7-------7-------7-|
e|--0-0-0---0-0-0---0-0-0-------0-0-0---0-0-0---0-0-0-------0-0-0---0-0-0---0-0-0---|

g|----------------|------------------------------------------------------------10-12|
d|5--------------o|--------------------------------------------------------7-9------|
a|--7-3---5-3----o|7-7-7-7-7-7-7-7-5-5-5-5-5-5-5-5-3-3-3-3-3-3-3-3-2-3-5-7----------|
e|------3-----0---|-----------------------------------------------------------------|

g|----------------------------------------------------------|
d|----------------------------------------------------------|
a|-7-7-7-7-7-7-7-7-5-5-5-5-5-5-5-5-3-3-3-3-3-3-3-3-2-3------|
e|-----------------------------------------------------3-0--|


g|-----------------------------------------------------------------------|
d|o---------------------------------5-7---------------------------------o|
a|o-7-5-7-5-7-5-7-5-7-5-7-5-----5-7-----7-5-7-5-7-5-7-5-7-5-7-5-3---5-3-o|
e|--------------------------6^7-----------------------------------3------|


g|-------------------------------------------------------------------------------|
d|o-----------------------------------------------------------------------------o|
a|o-7---------7---------7---------8-7---------7---------7---------7---------8-8-o|
e|----0-0-0-0---0-0-0-0---0-0-0-0-----0-0-0-0---0-0-0-0---0-0-0-0---0-0-0-0------|


g|--9-7---7-------------------|---------------------------------------------------|
d|o-----9---9-8-7-5-7-5---5--o|---------------------------------------------------|
a|o---------------------7----o|---------3---5-3-------------------------3---5-3---|
e|----------------------------|--0-0------3-----0-0-0-0-0-0-0-0-0-0-0-0---3-------|
  development and support by
dmitry ivanov