rock
 
|tablatures   |lyrics   |discussion forums   |more tabs @ XGuitar.com

Megadeth tabs

Mastermind guitar tab

MASTERMIND
[Megadeth - Cryptic Writings]
Transcribed by Mark Yeary
Five Magics - http://www.nebula.on.ca/heer/fivemagics/index.html


Standard Tuning

Intro:

D)---5--5--5--5-------5--5--5--5---2------------
A)---5--5--5--5-------5--5--5--5---2------------
E)---3--3--3--3-------3--3--3--3---0------------

Then this riff  (also played during chorus)

D)---------------------------------------------------------5-----------7---
A)-------7--6---------5------------5---------7--6---------------6--7-------
E)--0------------7--------6--7---------0------------7----------------------

D)-----------------------------------------------------------
A)-------7--6---------5------------5---------7--6------------
E)--0------------7--------6--7---------0-------------7-------

First ending:

G)---7--7--7--7-------
D)---5--5--5--5-------
A)--------------------
E)--------------------

Second ending:

G)---9-p-7----9-p-7---
D)---9-p-7----9-p-7---
A)--------------------
E)--------------------

Verse:

D)-----------5-------------------4------------------
A)--------------------------------------------------
E)--3-3-3---------3----2-2-2----------2-------------

D)-----------3-------------------2------------------
A)--------------------------------------------------
E)--1-1-1---------1----0-0-0----------0-------------

Then I guess this would be the interlude:

D)--2-----------2-----------2-h-3--2------------2----------2-p-0---2----
A)--2-----------2-----------2-h-3--2------------2----------2-p-0---2----
E)-------0-0--------0-0-----------------0-0---------0-0-----------------

D)---------2-----------2-h-3----------------0-----1--------
A)---------2-----------2-h-3--------2-------0-----1--------
E)--0-0--------0-0------------------2----------------------

Then:

G)----------------------------4-----------2--------------------------
D)--4------------4------------4-----------2---------------4----------
A)--4------------4----------------------------------------4----------
E)-------2-2---------2-2------------2-----------2-2------------------

G)----------4----------2--------------------------4------------------
D)----------4----------2-------------4------------4------------------
A)-----------------------------------4-------------------------------
E)--2-2----------2----------2-2----------2-2------------2------------

First ending:

G)-----5------4-----2-p-0--------
D)-----5------4-----2-p-0--------
A)-------------------------------
E)-------------------------------

Second ending:

D)---------4--2---------2---------------
A)------------------4---------4-3-2-----
E)--2-----------------------------------

D)-----------------3-----2-p-0----------
A)-----------------3-----2-p-0----------
E)---0--0--0----------------------------

Then:

D)----------------------------
A)-----------------7---5------
E)---0--0--0------------------

	"I tell you what to think"

G)-----------9----------------------8----------------
D)---------------------------------------------------
A)--7-7-7---------7--------6-6-6----------6----------
E)---------------------------------------------------

G)-----------7------------------------6--------------
D)---------------------------------------------------
A)--5-5-5---------5--------4-4-4----------4--5-------
E)---------------------------------------------------

For the outro, play the chorus riff and finish with an E5 chord.
And that's it.

Mark
JCPose@aol.com
  development and support by
dmitry ivanov