rock
 
|tablatures   |lyrics   |discussion forums   |more tabs @ XGuitar.com

Megadeth tabs

Lucretia bass tab

artist: Megadeth
song: Lucretia
album: Rust In Peace
bassist: David Ellefson

intro
|--------------------------------------------------------------------------------------------------------|
|----------------------------------------------------------------0-7--6--------------------------9-8-7---|
|-----------------------------------------------7-9--------0-1-2---------7--4----7-6-----5-7-8-9-------9-|
|-2---0-2---0-2---0-2---0-2---0-2---0-2---0-2--------0-1-2---------------------5------2------------------|

|----------------------------------------------------------|
|-7-----6---------------------------9--------------------0-|
|-------------7-----4-------7-6-----------5--------0-1-2---|
|---5-5---5-5---5-5---5-5-5-----5-5---5-5----0-1-2---------|

main verse
|-------------------------------------------------------------------------------2-1-0-------------|
|-----------------4-3-2---2---------------------------------------------4-3-2---------4-----------|
|-----------------------4---4-0--------------------2--------------------------4-------------------|
|-2-2-2-2-2-2-2-2----------------2-2-2-2-2-2-2-2-2----3-2-2-2-2-2-2-2-2-----------------2-2-2-2-2-|

|---------------------------------------------|--------------|
|---------------------------------------------|--------------|
|-2-0-2-4-2-0-2-0-----------------------------|--------------|
|-----------------3--0-2-2-2----0-2-2-2--0--3-|-0-2-2-2--5-2-|

interlude before solo
|----------------------------------------------------------------------------------------------------------|
|----------------------------------------------------------------------------------------------------------|
|-------2-3-4---3---2---1----------4-5-6---5---4---3-----------------------------------------------4---3---|
|-2-2-2-------5---4---3---2--4-4-4-------7---6---5---4--5--5-5--5-5--5-5-5-5-5-5---7--7-7--7-7-7-7---5---4-|

during guitar solo
|----------------------------------------------------------------------------------------|
|----------------------------------------------------------------------------------------|
|----------------------------------------7-6---------------------------------------------|
|-2--2-2--2-2--2-2-2-1--0--0-0--0-0--0-0-----5--5-5--5-5--5-5-5-0--2--2-2--2-4-4-4-4-4-3-|

|--------------------------------------------------------------7-----5-----7-----5------------------------------|
|-----4-----2-----4----------------2-----0-----2-------------7-----7-----7-----7--------------------------------|
|---4-----4-----4-----4----------2-----2-----2---------7-6-5-----5-----5-----5-----5-0---2--2-2--2-4--4-4-4-4---|
|-2-----2-----2-----2---2-2-1--0-----0-----0-----0-0-0--------------------------------------------------------3-|

then play the verse riffs in the right order for the rest of the solo.

last measure
|-------------------------|
|-------------------------|
|-7-9---9-7---7-9\\--------|
|-----9-----9-------0-3-2-|
  development and support by
dmitry ivanov