rock
 
|tablatures   |lyrics   |discussion forums   |more tabs @ XGuitar.com

Megadeth tabs

Losing My Senses guitar tab

Megadeth - Losing My Senses
Submitted By: Scruffy
EMail: scruffin_it@hotmail.com

From: TNGLC@aol.com
from The World Needs A Hero


4/16/01
Here is the majority of the song.
I am working on the solos and fills for it
and will update it as soon as they are through.
Tabbed by Greg   Tnglc@aol.com




|----------------|------------------|---------------------|
|----------------|------------------|---------------------|
|----------------|------------------|---------------------|
|----------------|------------------|---------------------|
|--7-5-7-11-7-5--|---7-5-2-5--------|---7--5--7--5--------|
|-0-0-0-0--0-0---|--0-0-0-0-0-5-6-7-|-0--0--0--0--0-5-6-7-|



|-------------|---------------|
|-------------|---------------|
|-9-8-7-4-3-2-|-7-7-7-7-7-8-9-|
|-9-8-7-4-3-2-|-7-7-7-7-7-8-9-|
|-7-6-5-2-1-0-|-5-5-5-5-5-6-7-|
|-------------|---------------|


                             bend 5,6,7 slightly
|------------|-------------|-------------|
|------------|-------------|-------------|
|---9-9-9-9-9|---7-7-7-7-7-|-------------|
|-9-9-9-9-9-9|-9-7-7-7-7-7-|-------------|
|-9-7-7-7-7-7|-9-5-5-5-5-5-|-------------|
|-7----------|-7-----------|-0-5-0-6-0-7-|


The last time you play the 5th riff try this:
----------------------|
----------------------|
-12-12-12-12-12-13-14-|
-12-12-12-12-12-13-14-|
-10-10-10-10-10-11-12-|
-10-10-10-10-10-11-12-|
  development and support by
dmitry ivanov