rock
 
|tablatures   |lyrics   |discussion forums   |more tabs @ XGuitar.com

Megadeth tabs

Last Rites Loved To Death guitar tab

MEGADETH
'Last Rites/Loved To Death'

from the album 'Killing Is My Business... And Business Is Good!'


transcribed by
  Russ Elton (vicelton@yahoo.com)

find more metal tablatures at
  http://venus.spaceports.com/~metaltab/
  http://www.geocities.com/vicelton/



Last Modified:  12/26/99


All tabs are how I play the song.  I've tried to be as accurate as possible, but
some errors may be present.  Please contact me with any corrections.

All tabs assume some familiarity with the song.  In other words, I've laid out 
the riffs, and if you know the song, you should be able to figure out what riff goes
where, although I will try and lay the riffs out sequentially. 

There is some consideration for timing on these tabs.  Listen to the song for
the correct timing.  I'll do my best to try and space out notes based
on length.

Tuning: Standard

Intro solo
e|--------------------------------------------------------------------------------------------|
B|--------------------------------------------------------------------------------------------|
G|-3-2h3p2p0-5t3p2p0-7t3p2p0-10t3p2p0-12t3p2p0-15t3p2p0-12t3p2p0-10t3p2p0-7t3p2p0-5t3p2p0-----|
D|--------------------------------------------------------------------------------------------|
A|--------------------------------------------------------------------------------------------|
E|----------------------------------------------------------------------------------------2/5-|

Main riff                                  x3
e|-----------------------------------------|-----------------------------------------------|
B|-----------------------------------------|-----------------------------------------------|
G|-----------------------------------------|----------------------8p6p0-8p6p0--------------|
D|-------6p4p0-(0)h4h6-------8p6p0-(0)h6h8-|--------6p4p0-(0)h4h6-------------8p6p0--8p6p0-|
A|-0-0-0---------------0-0-0---------------|--0-0-0----------------------------------------|
E|-----------------------------------------|-----------------------------------------------|

Verse (listen to song for weird ass timing)
e|-----------------------------------------------------------------------------------|
B|-----------------------------------------------------------------------------------|
G|-----------------------------------------------------------------------------------|
D|-----------------------------------------------------------------------------------|
A|--8-----------8--------------------------------------------------------------------|
E|--6--0--0--0--6--0-0-0-0-0-0-------------------------------------------------------|
       pm pm pm    pmpmpmpmpmpm

e|-----------------------------------------------------------------------------------|
B|-----------------------------------------------------------------------------------|
G|-----------------------------------------------------------------------------------|
D|-----------------------------------------------------------------------------------|
A|---------4-----4-5-4-5--4/5--------------------------------------------------------|
E|-0-0-0-0-2-0-0-2-3-2-3--2/3--------------------------------------------------------|
   pmpmpmpmpmpmpm

"I...loved you....to death"
e|-----------------------------------------------------------------------------------|
B|-----------------------------------------------------------------------------------|
G|-----------------------------------------------------------------------------------|
D|-----------------------------------------------------------------------------------|
A|--8--7--6--5--4--3---7--6--5--4--3--2----------------------------------------------|
E|--6--5--4--3--2--1---5--4--3--2--1--0----------------------------------------------|


e|--------------------------------------------------------------------------------------|
B|--------------------------------------------------------------------------------------|
G|-------------------------------------------------------------8p6p0-8p6p0--------------|
D|-------6p4p0-(0)h4h6-------8p6p0-(0)h6h8-------6p4p0-(0)h4h6-------------8p6p0--8p6p0-|
A|-0-0-0---------------0-0-0---------------0-0-0----------------------------------------|
E|--------------------------------------------------------------------------------------|

e|-----------------------------------------------------------------------------------|
B|-----------------------------------------------------------------------------------|
G|-----------------------------------------------------------------------------------|
D|-----------------------------------------------------------------------------------|
A|--8--7--6--5--4--3---7--6--5--4--3--2----------------------------------------------|
E|--6--5--4--3--2--1---5--4--3--2--1--0----------------------------------------------|

Post-solo        x7
e|---------------|-------------------------------------------------------------------|
B|---------------|-------------------------------------------------------------------|
G|---------------|------4------------------------------------------------------------|
D|---------------|---3--2--3---------------------------------------------------------|
A|---------------|---1-----1---------------------------------------------------------|
E|--3--2--1--0---|-------------------------------------------------------------------|
    pm pm pm pm 

"And now I'm down below.."
e|-----------------------------------------------------------------------------------|
B|-----------------------------------------------------------------------------------|
G|-----------------------------------------------------------------------------------|
D|---------------------------------------------------------9-------------------------|
A|---------------------------------------------------------7--8----------------------|
E|--5-5-5-6-6-6-5-5-5-4-4-4-5-5-6-6-5-5-5-6-6-6-5-5-5-5-5-----6----------------------|
    |----------------------pm-----------------------------|

"And now you're coming back..."
e|-----------------------------------------------------------------------------------|
B|-----------------------------------------------------------------------------------|
G|-----------------------------------------------------------------------------------|
D|-----------------------------9-----------------------------------------------------|
A|--7--8--7--6--7--8--7--8--7--7--8--------------------------------------------------|
E|--5--6--5--4--5--6--5--6--5-----6--------------------------------------------------|

Ending
e|-----------------------------------------------------------------------------------|
B|-----------------------------------------------------------------------------------|
G|-----------------------------------------------------------------------------------|
D|--7----8----7\---------------------------------------------------------------------|
A|--7----8----7\---------------------------------------------------------------------|
E|--5----6----5\---------------------------------------------------------------------|


notation:
^   =  bend [ ^ = half, ^^ = whole, etc. ]
^r  =  bend and release
x   =  mute with fret-hand
pm  =  mute with palm-hand
X\\ =  pick slide
h   =  hammer-on
p   =  pull-off
~   =  vibrato
t   =  tap-on
/   =  slide up
\   =  slide down
h.  =  harmonics
ah  =  artificial harmonic
(9) =  ghost note
tm  =  trem picking
tr  =  trill

  development and support by
dmitry ivanov