rock
 
|tablatures   |lyrics   |discussion forums   |more tabs @ XGuitar.com

Megadeth tabs

Last Rites Loved To Death bass tab

BAND - MEGADETH
SONG - LAST RITES/LOVED TO DETH
ALBUM - KILLING IS MY BUSINESS...AND BUSINESS IS GOOD!
TUNING - E A D G


PART 1 - LAST RITES     THIS IS PLAYED ALONG WITH THE PIANO INTRO WHICH DAVE PLAYS AT THE BEGINNING
|----------------------------------|-------------------|-------------------|
|--7-5-3-2-0-2-3----------------2--|--7-5-3-2-0-2-3----|--7-5-3-2-0-2-3-5--|
|-----------------3-5-7-0-2-3-5----|----------------3--|-------------------|
|----------------------------------|-------------------|-------------------|


PART 2A        B
|-----------|------------|
|-------7---|------------|
|--7-0----0-|--0-9-0-10--|
|-----------|------------|


PART 3
|-15--14--12---------------------------------|
|-------------15--12------------------12-----|
|---------------------13--12--10-------------|
|---------------------------------10---------|

 _______________________________________________

LOVED TO DETH


PART 1
|----------|-----------------------|
|----------|-----------------------|
|--0----1--|--0000-1111-0000-1111--|
|----------|-----------------------|


PART 2
|-------------------|
|-------------------|
|-------------------|
|--0-0-6-0-0-0-0-6--|


PART 3
|----------------------|
|----------------------|
|----------------------|
|0-0-0-0-2-0-0-2/3--2/3|


PART 4
|--------------------------|
|--------------------------|
|--------------------------|
|-6-5-4-3-2-1-5-4-3-2-1-0--|


PART 5         PART 6
|-----------|  |---------|
|-----------|  |----2----|
|-----------|  |--1---1--|
|--0-0-0-0--|  |---------|


PART 7
|-------------------------------------------------|---------------------|
|-------------------------------------------------|---------------------|
|--------------------------------------------7----|----------------7----|
|--5-5-5-6-6-6-5-5-5-4-4-4-5-5-6-6-5-5-5-5-5---6--|--5-6-5-4-5-6-5---6--|

|-------------------------------------------------------------|
|-------------------------------------------------------------|
|-------------------------------------------------------------|
|-5-5-5-5-5-5-5-5-5-5-5-5-5-5-5-5-6-6-6-6-6-6-6-6-6-6-6-6-6-5-|
  development and support by
dmitry ivanov