rock
 
|tablatures   |lyrics   |discussion forums   |more tabs @ XGuitar.com

Megadeth tabs

Kick The Chair guitar tab

#----------------------------------PLEASE NOTE---------------------------------#
#This file is the author's own work and represents their interpretation of the #
#song. You may only use this file for private study, scholarship, or research. #
#------------------------------------------------------------------------------##

                                 KICK THE CHAIR
                             As recorded by Megadeth
                   (From the 2004 Album THE SYSTEM HAS FAILED)

Words and Music by Dave Mustaine
Transcribed by Daniel Pacheco

Gtr I (E A D G B E) - 'Dave Mustaine'
Gtr II (E A D G B E) - 'Chris Poland'
Gtr III (E A D G B E) - 'Dave Mustaine II'

   Intro
    Q=147
    F#5 E5    F#5           G5  E5  E5    F#5           C5
   4/4
    Gtrs I, II
      PM  PM--------------|       PM  PM--------------|
    E S E S S S S S S S S S E   E S E S S S S S S S S S E
||----------------------------|---------------------------|
||o---------------------------|---------------------------|
||----------------------------|---------------------------|
||----------------------------|-------------------------5-|
||o-4---2-------------------5-|-4---2-------------------3-|
||--2-2-0-0-3-2-2-2-2-2-2-2-3-|-2-2-0-0-3-2-2-2-2-2-2-2---|


  E5  E5    F#5           D5  A5 G#5G5 G#5A5
    PM  PM--------------|
  E S E S S S S S S S S S E   E. E. Q  E. E.     4x
|---------------------------|--------------------||
|---------------------------|-------------------o||
|---------------------------|--------------------||
|-------------------------7-|--------------------||
|-4---2-------------------5-|-7--6--5--6--7-----o||
|-2-2-0-0-3-2-2-2-2-2-2-2---|-5--4--3--4--5------||


                             1.,2.,3.
    F#5                                     E5 G5
    Gtr I
      PM----|    PM----|
    E E S S S E. E S S S S   +E  E S S S E. E. E.  4x
||-------------------------|-----------------------||
||o------------------------|----------------------o||
||-------------------------|-----------------------||
||-------------------------|-----------------------||
||o-4---------4----------4-|-(4)---------4--2--5--o||
||--2-2-3-2-0-2--2-3-2-0-2-|-(2)-2-3-2-0-2--0--3---||


  4.
  N.C.
  Gtrs I, II
  S S S S S S S S S S S S S S S S
|---------------------------------|
|---------------------------------|
|---------------------------------|
|---------------------------------|
|-3-2-1-0-------------------0-1-2-|
|---------4-3-2-1-0-1-2-3-4-------|


    F#5                                     E5 G5
      PM----|    PM----|         PM----|
    E E S S S E. E S S S S   +E  E S S S E. E. E.
||-------------------------|----------------------|
||o------------------------|----------------------|
||-------------------------|----------------------|
||-------------------------|----------------------|
||o-4---------4----------4-|-(4)---------4--2--5--|
||--2-2-3-2-0-2--2-3-2-0-2-|-(2)-2-3-2-0-2--0--3--|


  F#5                                     C5 G5
    PM----|    PM----|         PM----|
  E E S S S E. E S S S S   +E  E S S S E. E. E.
|------------------------|------------------------||
|------------------------|-----------------------o||
|------------------------|------------------------||
|------------------------|----------------5-------||
|-4---------4----------4-|-(4)---------4--3--5---o||
|-2-2-3-2-0-2--2-3-2-0-2-|-(2)-2-3-2-0-2-----3----||


                     Verse
  $
  E5 G5   F#5   G5    N.C.F#5     G5 N.C.                      G5 F#5
                          PM----|                      PM----|    PM------|
  E. E. E E. E. E     S S S S S S Q  S S S S S S   S S S S S S Q  S S S S E
|-----------------||-----------------------------|---------------------------|
|-----------------||o----------------------------|---------------------------|
|-----------------||-----------------------------|---------------------------|
|-----------------||-----------------------------|---------------------------|
|-2--5----4-----5-||o-2-0---------5--2-3-2-0-----|-2-0---------5-------------|
|-0--3--0-2--0--3-||------2-2-2-2-3----------4-3-|-----2-2-2-2-3--2-2-2-2-2--|


                               1.,2.,3.
  N.C.F#5     G5 N.C.              F#5     G5N.C.
      PM----|                      PM----|
  S S S S S S Q  S S S S S S   S S S S S S E S S S S S S S S   4x
|----------------------------|---------------------------------||
|----------------------------|--------------------------------o||
|----------------------------|---------------------------------||
|----------------------------|---------------------------------||
|-2-0---------5--2-3-2-0-----|-2-0---------5-5-4-3-2----------o||
|-----2-2-2-2-3----------4-3-|-----2-2-2-2-3---------6-5-4-3---||


  4.
                                        To Coda
              G5E5 G5     F#5      G5F#5
                                            2/4
                                             <
      PM----|
  S S S S S S E E. E. E   E. S +E  E Q  Q    H
|-----------------------|------------------|------|
|-----------------------|------------------|------|
|-----------------------|------------------|------|
|-----------------------|------------------|------|
|-2-0---------5-2--5----|-4--------5-4-----|-4----|
|-----2-2-2-2-3-0--3--0-|-2--0-(0)-3-2-----|-2----|


   Chorus
    F#5                                     E5 G5
   4/4
      PM----|    PM----|         PM----|
    E E S S S E. E S S S S   +E  E S S S E. E. E.
||-------------------------|----------------------|
||o------------------------|----------------------|
||-------------------------|----------------------|
||-------------------------|----------------------|
||o-4---------4----------4-|-(4)---------4--2--5--|
||--2-2-3-2-0-2--2-3-2-0-2-|-(2)-2-3-2-0-2--0--3--|


                                 D.S. al Coda
  F#5                                     C5 G5
    PM----|    PM----|         PM----|
  E E S S S E. E S S S S   +E  E S S S E. E. E.
|------------------------|-----------------------||
|------------------------|----------------------o||
|------------------------|-----------------------||
|------------------------|----------------5------||
|-4---------4----------4-|-(4)---------4--3--5--o||
|-2-2-3-2-0-2--2-3-2-0-2-|-(2)-2-3-2-0-2-----3---||


   Chorus
    &
    F#5                                     E5 G5
      PM----|    PM----|         PM----|
    E E S S S E. E S S S S   +E  E S S S E. E. E.
||-------------------------|----------------------|
||o------------------------|----------------------|
||-------------------------|----------------------|
||-------------------------|----------------------|
||o-4---------4----------4-|-(4)---------4--2--5--|
||--2-2-3-2-0-2--2-3-2-0-2-|-(2)-2-3-2-0-2--0--3--|


  1.
  F#5                                     C5 G5
    PM----|    PM----|         PM----|
  E E S S S E. E S S S S   +E  E S S S E. E. E.
|------------------------|------------------------||
|------------------------|-----------------------o||
|------------------------|------------------------||
|------------------------|----------------5-------||
|-4---------4----------4-|-(4)---------4--3--5---o||
|-2-2-3-2-0-2--2-3-2-0-2-|-(2)-2-3-2-0-2-----3----||


  2.
  F#5                      A5 G#5G5   G#5
  Gtr I
    PM----|    PM------|
  E E S S S E. E S S S S   E. E. Q.   Q
|------------------------|---------------|
|------------------------|---------------|
|------------------------|---------------|
|------------------------|---------------|
|-4---------4------------|-7--6--5----6--|
|-2-2-2-2-0-2--2-2-2-0-2-|-5--4--3----4--|
|
| Gtr II
|   PM----|    PM------|
| E E S S S E. E S S S S   E. E. Q.   Q
|------------------------|---------------|
|------------------------|---------------|
|------------------------|---------------|
|------------------------|---------------|
|-4---------4------------|-7--6--5----6--|
|-2-2-2-2-0-2--2-2-2-0-2-|-5--4--3----4--|


   Solo
    A5                                 Bb5
    S S S S S S S S S S  S S S S S S   S S S S S S  S S S S  S S S S S S
||--7p5---5-7p5-8p5---5-10p5-8p5-7p5-|-8p6---6-8p6-10p6---6-10p6-8p6---6-|
||o-----5-----------5----------------|-----6------------6------------6---|
||-----------------------------------|-----------------------------------|
||-----------------------------------|-----------------------------------|
||o----------------------------------|-----------------------------------|
||-----------------------------------|-----------------------------------|
|
|   S S S S S S S S S S  S S S S S S   S S S S S S  S S S S  S S S S S S
||-----------------------------------|-----------------------------------|
||o----------------------------------|-----------------------------------|
||-----------------------------------|-----------------------------------|
||--2--------------------------------|-3---------------------------------|
||o-0-0-0-0-0-0-0-0-0-0--0-0-0-0-0-0-|-1-1-1-1-1-1--1-1-1-1--1-1-1-1-1-1-|
||-----------------------------------|-----------------------------------|


                                    1.
  F5                                E5              G5
  S S S S S S S S S S S S S S S S   S S S S S S S S S S S S S S S S
|---------------------------------|-----------------8-7-5---7-5------||
|-6p3---3-6p3---3-5---------------|-----------------------8-----6-5-o||
|-----0-------5-----5-4-5-7-4-2-4-|-5-4---4-5-4-5--------------------||
|---------------------------------|-----5----------------------------||
|---------------------------------|---------------------------------o||
|---------------------------------|----------------------------------||
|
| S S S S S S S S S S S S S S S S   S S S S S S S S S S S S S S S S
|---------------------------------|----------------------------------||
|---------------------------------|---------------------------------o||
|---------------------------------|----------------------------------||
|---------------------------------|----------------------------------||
|-3-------------------------------|-2---------------5---------------o||
|-1-1-1-1-1-1-1-1-1-1-1-1-1-1-1-1-|-0-0-0-0-0-0-0-0-3-3-3-3-3-3-3-3--||


  2.
  E5                      G5
  Gtr I
   S  S  S  S  S  S  S  S  S  S  S  S  S  S  S S
|-10--8--7-----8--7--------7---------------------|
|----------10-------10--8----10--8--6-10--8--6-5-|
|------------------------------------------------|
|------------------------------------------------|
|------------------------------------------------|
|------------------------------------------------|
|
| Gtr III
|  S  S  S  S  S  S  S  S  S  S  S  S  S  S  S S
|-14-12-10----12-10-------10---------------------|
|----------13-------13-12----13-12-10-13-12-10-8-|
|------------------------------------------------|
|------------------------------------------------|
|------------------------------------------------|
|------------------------------------------------|
|
| Gtr II
|  S  S  S  S  S  S  S  S  S  S  S  S  S  S  S S
|------------------------------------------------|
|------------------------------------------------|
|------------------------------------------------|
|------------------------------------------------|
|--2-----------------------5---------------------|
|--0--0--0--0--0--0--0--0--3--3--3--3--3--3--3-3-|


    A5
     S S S S  S S  S S S S  S S  S S  S S
||---7p5---5--7p5--8p5---5-10p5--8p5--7p5-|
||o------5-------------5------------------|
||----------------------------------------|
||----------------------------------------|
||o---------------------------------------|
||----------------------------------------|
|
|    S S S S  S S  S S S S  S S  S S  S S
||--10p8---8-10p8-12p8---8-13p8-12p8-10p8-|
||o------8-------------8------------------|
||----------------------------------------|
||----------------------------------------|
||o---------------------------------------|
||----------------------------------------|
|
|    S S S S  S S  S S S S  S S  S S  S S
||----------------------------------------|
||o---------------------------------------|
||----------------------------------------|
||---2------------------------------------|
||o--0-0-0-0--0-0--0-0-0-0--0-0--0-0--0-0-|
||----------------------------------------|


  Bb5
   S  S  S  S  S  S  S  S  S  S  S  S  S  S  S  S
|-13p12----12-13p12-15p12----12-15p12-13p12----12-|
|-------13----------------13----------------13----|
|-------------------------------------------------|
|-------------------------------------------------|
|-------------------------------------------------|
|-------------------------------------------------|
|
|  S  S  S  S  S  S  S  S  S  S  S  S  S  S  S  S
|-10p=8-----8-10p=8-12p=8-----8-12p=8-10p=8-----8-|
|--------8-----------------8-----------------8----|
|-------------------------------------------------|
|-------------------------------------------------|
|-------------------------------------------------|
|-------------------------------------------------|
|
|  S  S  S  S  S  S  S  S  S  S  S  S  S  S  S  S
|-------------------------------------------------|
|-------------------------------------------------|
|-------------------------------------------------|
|--3----------------------------------------------|
|--1--1--1--1--1--1--1--1--1--1--1--1--1--1--1--1-|
|-------------------------------------------------|


  F5
  S S S S S S S S S S S S S S S S
|---------------------------------|
|-6p3---3-6p3---3-5---------------|
|-----0-------5-----5-4-5-7-4-2-4-|
|---------------------------------|
|---------------------------------|
|---------------------------------|
|
| S S S S S S S S S S S S S S S S
|-5p3---3-5p3---3-5---------------|
|-------------6-----6-5-6-8-6-1-3-|
|-----5---------------------------|
|---------------------------------|
|---------------------------------|
|---------------------------------|
|
| S S S S S S S S S S S S S S S S
|---------------------------------|
|---------------------------------|
|---------------------------------|
|---------------------------------|
|-3-------------------------------|
|-1-1-1-1-1-1-1-1-1-1-1-1-1-1-1-1-|


  1.
  E5              G5
  S S S S S S S S  S  S S  S  S S  S S
|------------------8--7-5-----7-5-------||
|--------------------------8-------6-5-o||
|-5-4---4-5-4-5-------------------------||
|-----5---------------------------------||
|--------------------------------------o||
|---------------------------------------||
|
| S S S S S S S S  S  S S  S  S S  S S
|-----------------12-10-8----10-8-------||
|-5-3---3-5-3-5-----------12------10-8-o||
|-----4---------------------------------||
|---------------------------------------||
|--------------------------------------o||
|---------------------------------------||
|
| S S S S S S S S  S  S S  S  S S  S S
|---------------------------------------||
|--------------------------------------o||
|---------------------------------------||
|---------------------------------------||
|-2----------------5-------------------o||
|-0-0-0-0-0-0-0-0--3--3-3--3--3-3--3-3--||


  2.
  E5                      G5
   S  S  S  S  S  S  S  S  S  S  S  S  S  S  S S
|-10--8--7-----8--7--------7---------------------|
|----------10-------10--8----10--8--6-10--8--6-5-|
|------------------------------------------------|
|------------------------------------------------|
|------------------------------------------------|
|------------------------------------------------|
|
|  S  S  S  S  S  S  S  S  S  S  S  S  S  S  S S
|-14-12-10----12-10-------10---------------------|
|----------13-------13-12----13-12-10-13-12-10-8-|
|------------------------------------------------|
|------------------------------------------------|
|------------------------------------------------|
|------------------------------------------------|
|
|  S  S  S  S  S  S  S  S  S  S  S  S  S  S  S S
|------------------------------------------------|
|------------------------------------------------|
|------------------------------------------------|
|------------------------------------------------|
|--2-----------------------5---------------------|
|--0--0--0--0--0--0--0--0--3--3--3--3--3--3--3-3-|


  F5
   ~~
   W
|----------------------------------|
|----------------------------------|
|-10-------------------------------|
|----------------------------------|
|----------------------------------|
|----------------------------------|
|
|  ~~
|  W
|----------------------------------|
|-10-------------------------------|
|----------------------------------|
|----------------------------------|
|----------------------------------|
|----------------------------------|
|
|  S S S S S S S S S S S S S S S S
|----------------------------------|
|----------------------------------|
|----------------------------------|
|----------------------------------|
|--3-------------------------------|
|--1-1-1-1-1-1-1-1-1-1-1-1-1-1-1-1-|


  E5                     G5
   |-------3-------|      |-------3--------|
   Q      Q        Q      Q       Q        Q
|------------------------------------------------|
|------------------------------------------------|
|--9-----10--------9-----[7]---------------------|
|--------------------------------10--------9-----|
|------------------------------------------------|
|------------------------------------------------|
|
|  |-------3-------|      |-------3--------|
|  Q      Q        Q      Q       Q        Q
|-12-----13-------12-----10----------------------|
|--------------------------------13-------12-----|
|------------------------------------------------|
|------------------------------------------------|
|------------------------------------------------|
|------------------------------------------------|
|
|  S S S    S S S    S S  S  S S    S S S    S S
|------------------------------------------------|
|------------------------------------------------|
|------------------------------------------------|
|------------------------------------------------|
|--2----------------------5----------------------|
|--0-0-0----0-0-0----0-0--3--3-3----3-3-3----3-3-|


  A5  Bb5    E5 G5 G#5  A5   Bb5    E5      G5    G#5
   TP                     TP          TP
                                      |----3----|
   W                      H          +Q   Q     Q
|---------------------|-----------------------------|
|---------------------|-----------------------------|
|---------------------|-----------------------------|
|--7------------------|--10---------(10)-12----13---|
|---------------------|-----------------------------|
|---------------------|-----------------------------|
|
|  TP                     TP
|  W                     +W
|---------------------|-----------------------------|
|-10------------------|-(10)------------------------|
|---------------------|-----------------------------|
|---------------------|-----------------------------|
|---------------------|-----------------------------|
|---------------------|-----------------------------|
|
|  E. E. S S E. E. E      E. E. S S   E.    E.    E
|---------------------|-----------------------------|
|---------------------|-----------------------------|
|---------------------|-----------------------------|
|---------------------|-----------------------------|
|--7--8------2--5--6--|---7--8--------2-----5-----6-|
|--5--6--0-0-0--3--4--|---5--6--0-0---0-----3-----4-|


  A5   Bb5    E5 G5 G#5  A5  Bb5          E5 G5 G#5
    TP                    TP
    W                     Q      +H.
|----------------------|---------------------------|
|----------------------|---------------------------|
|----------------------|---------------------------|
|--14------------------|-10-----(10)\\--------------|
|----------------------|---------------------------|
|----------------------|---------------------------|
|
|   TP                    TP
|  +W                     Q      +H.
|----------------------|---------------------------|
|-(10)-----------------|-10-----(10)\\--------------|
|----------------------|---------------------------|
|----------------------|---------------------------|
|----------------------|---------------------------|
|----------------------|---------------------------|
|
|   E. E. S S E. E. E     E. E.       S S E. E. E
|----------------------|---------------------------|
|----------------------|---------------------------|
|----------------------|---------------------------|
|----------------------|---------------------------|
|---7--8------2--5--6--|--7--8------------2--5--6--|
|---5--6--0-0-0--3--4--|--5--6--------0-0-0--3--4--|


  A5  Bb5    E5 G5 G#5  A5    Bb5       E5     G5    G#5
  Gtr III
   TP
                        |----3----|      |----3----|
   W                    Q   Q     Q      Q   Q     Q
|---------------------|-8--10----12-----13--15----13---|
|-10------------------|--------------------------------|
|---------------------|--------------------------------|
|---------------------|--------------------------------|
|---------------------|--------------------------------|
|---------------------|--------------------------------|
|
| Gtr II
|  E. E. S S E. E. E    E.    E.    S S  E.    E.    E
|---------------------|--------------------------------|
|---------------------|--------------------------------|
|---------------------|--------------------------------|
|---------------------|--------------------------------|
|--7--8------2--5--6--|-7-----8----------2-----5-----6-|
|--5--6--0-0-0--3--4--|-5-----6-----0-0--0-----3-----4-|


  A5  Bb5    E5 G5 G#5  A5     Bb5       E5         G5         G#5
   TP
                         |----3----|      |--------3---------|
   W                     Q   Q     Q      Q   E         +E   Q
|-12------------------|-17--19----20-----22--24b25=====(24)r22-----|
|---------------------|--------------------------------------------|
|---------------------|--------------------------------------------|
|---------------------|--------------------------------------------|
|---------------------|--------------------------------------------|
|---------------------|--------------------------------------------|
|
|  E. E. S S E. E. E     E.    E.    S S  E.        E.         E
|---------------------|--------------------------------------------|
|---------------------|--------------------------------------------|
|---------------------|--------------------------------------------|
|---------------------|--------------------------------------------|
|--7--8------2--5--6--|--7-----8----------2---------5----------6---|
|--5--6--0-0-0--3--4--|--5-----6-----0-0--0---------3----------4---|


  A5
  Gtr I
   Q       E   E     E.     E.      E
|---------------------------------------|
|---------------------------------------|
|--------------------9------7-----------|
|--7-------5---7-------------------/7---|
|---------------------------------------|
|---------------------------------------|
|
| Gtr III
|  ~~~~~~~~~~~~~~~~~~~~~~~~~~~~~~~~~~~~~~
|  H                +H
|-24---------------(24)-----------------|
|---------------------------------------|
|---------------------------------------|
|---------------------------------------|
|---------------------------------------|
|---------------------------------------|
|
| Gtr II
|  S S S S S S S S   S  S S S  S S  S S
|---------------------------------------|
|---------------------------------------|
|---------------------------------------|
|--2------------------------------------|
|--0-0-0-0-0-0-0-0---0--0-0-0--0-0--0-0-|
|---------------------------------------|


  Bb5
    Q         E   E   E.     E.      E
|----------------------------------------|
|----------------------------------------|
|---------------------9------7-----------|
|---5---------5---7-----------------/5---|
|----------------------------------------|
|----------------------------------------|
|
|   >
|~~~~~~~
|  +W
|-(24)\\----------------------------------|
|----------------------------------------|
|----------------------------------------|
|----------------------------------------|
|----------------------------------------|
|----------------------------------------|
|
|   S   S S S S S S S S  S S S  S S  S S
|----------------------------------------|
|----------------------------------------|
|----------------------------------------|
|---3------------------------------------|
|---1---1-1-1-1-1-1-1-1--1-1-1--1-1--1-1-|
|----------------------------------------|


  F5                                   E5              G5
  Gtr I
  Q       E   E   E.     E.      E     Q       E   E   E.     E.      E
|------------------------------------|------------------------------------|
|------------------------------------|------------------------------------|
|-----------------9------7-----------|-----------------9------7-----------|
|------------------------------------|-------------------------------/5---|
|-8-------7---8-----------------/8---|-7-------5---7----------------------|
|------------------------------------|------------------------------------|
|
| Gtr II
| S S S S S S S S S  S S S  S S  S S   S S S S S S S S S  S S S  S S  S S
|------------------------------------|------------------------------------|
|------------------------------------|------------------------------------|
|------------------------------------|------------------------------------|
|------------------------------------|------------------------------------|
|-3----------------------------------|-2---------------5------------------|
|-1-1-1-1-1-1-1-1-1--1-1-1--1-1--1-1-|-0-0-0-0-0-0-0-0-3--3-3-3--3-3--3-3-|


  A5                                   Bb5
  Gtr I
  Q       E   E   E.     E.      E     Q       E   E   E.     E.      E
|------------------------------------|------------------------------------|
|------------------------------------|------------------------------------|
|-----------------9------7-----------|-----------------9------7-----------|
|-7-------5---7-----------------/7---|-5-------5---7-----------------/5---|
|------------------------------------|------------------------------------|
|------------------------------------|------------------------------------|
|
| Gtr III
| Q       E   E   E.     E.      E     Q       E   E   E.     E.      E
|------------------------------------|------------------------------------|
|-----------------8------6-----------|-----------------8------6-----------|
|-5-------4---5-----------------/5---|-3-------3---5-----------------/3---|
|------------------------------------|------------------------------------|
|------------------------------------|------------------------------------|
|------------------------------------|------------------------------------|
|
| Gtr II
| S S S S S S S S S  S S S  S S  S S   S S S S S S S S S  S S S  S S  S S
|------------------------------------|------------------------------------|
|------------------------------------|------------------------------------|
|------------------------------------|------------------------------------|
|-2----------------------------------|-3----------------------------------|
|-0-0-0-0-0-0-0-0-0--0-0-0--0-0--0-0-|-1-1-1-1-1-1-1-1-1--1-1-1--1-1--1-1-|
|------------------------------------|------------------------------------|


  F5                                   E5              G5
  Q       E   E   E.     E.      E     Q       E   E   E.     E.      E
|------------------------------------|------------------------------------|
|------------------------------------|------------------------------------|
|-----------------9------7-----------|-----------------9------7-----------|
|------------------------------------|-------------------------------/5---|
|-8-------7---8-----------------/8---|-7-------5---7----------------------|
|------------------------------------|------------------------------------|
|
| Q       E   E   E.     E.      E     Q       E   E   E.     E.      E
|------------------------------------|------------------------------------|
|-----------------8------6-----------|-----------------8------6-----------|
|------------------------------------|-------------------------------/4---|
|-7-------5---7-----------------/7---|-5-------4---5----------------------|
|------------------------------------|------------------------------------|
|------------------------------------|------------------------------------|
|
| S S S S S S S S S  S S S  S S  S S   S S S S S S S S S  S S S  S S  S S
|------------------------------------|------------------------------------|
|------------------------------------|------------------------------------|
|------------------------------------|------------------------------------|
|------------------------------------|------------------------------------|
|-3----------------------------------|-2---------------5------------------|
|-1-1-1-1-1-1-1-1-1--1-1-1--1-1--1-1-|-0-0-0-0-0-0-0-0-3--3-3-3--3-3--3-3-|


  F5                                   E5 G5   F#5   G5
  Q       E   E   E.     E.      E     E. E. E E. E. E
|------------------------------------|-------------------|
|------------------------------------|-------------------|
|-----------------9------7-----------|-------------------|
|------------------------------------|-------------------|
|-8-------7---8-----------------/8---|-2--5----4-----5---|
|------------------------------------|-0--3--0-2--0--3---|
|
| Q       E   E   E.     E.      E     W
|------------------------------------|-------------------|
|-----------------8------6-----------|-------------------|
|------------------------------------|-------------------|
|-7-------5---7-----------------/7---|-------------------|
|------------------------------------|-------------------|
|------------------------------------|-------------------|
|
| S S S S S S S S S  S S S  S S  S S   E. E. E E. E. E
|------------------------------------|-------------------|
|------------------------------------|-------------------|
|------------------------------------|-------------------|
|------------------------------------|-------------------|
|-3----------------------------------|-2--5----4-----5---|
|-1-1-1-1-1-1-1-1-1--1-1-1--1-1--1-1-|-0--3--0-2--0--3---|


  F#5 E5    F#5           G5  F#5   E5      F#5           C5
  Gtr I
    PM  PM--------------|         PM    PM--------------|
  E S E S S S S S S S S S E   E   S E   S S S S S S S S S E
|---------------------------|---------------------------------|
|---------------------------|---------------------------------|
|---------------------------|---------------------------------|
|---------------------------|-----------------------------5---|
|-4---2-------------------5-|-4-----2---------------------3---|
|-2-2-0-0-3-2-2-2-2-2-2-2-3-|-2---2-0---0-3-2-2-2-2-2-2-2-----|
|
| Gtr II
| ~
| W                           S S S S S S S S S S S S S S S S
|---------------------------|---------------------------------|
|---------------------------|---------------------------------|
|---------------------------|-2-----3-----2-------------------|
|-4-------------------------|---4p2---4p2---5-4-2-0-----------|
|---------------------------|-----------------------3-2-0-----|
|---------------------------|-----------------------------3-2-|


  F#5  E5     F#5                 D5
     PM   PM--------------------|
  E  S E  S S S S     S S S  S  S E
|-------------------------------------|
|-------------------------------------|
|-------------------------------------|
|---------------------------------7---|
|-4----2--------------------------5---|
|-2--2-0--0-3-2-2-----2-2-2--2--2-----|
|
| E.   E.   E   Q           +Q
|---------------8-----------(8)-------|
|------6--------8b10========(8)r======|
|-4-----------------------------------|
|-------------------------------------|
|-------------------------------------|
|-------------------------------------|


  A5   G#5 G5   G#5 A5     F#5   E5    F#5               G5
                               PM  PM------------------|
    E.  E.  Q    E.   E.     E S E S S S  S    S S S S S E
|------------------------|---------------------------------|
|------------------------|---------------------------------|
|------------------------|---------------------------------|
|------------------------|---------------------------------|
|---7---6---5----6----7--|---4---2-----------------------5-|
|---5---4---3----4----5--|---2-2-0-0-3-2--2----2-2-2-2-2-3-|
|
|   E.  E.  Q    E.   E.     H            H
|------------------------|---------------19b21-------------|
|-[10]-[9]-[8]--[9]-[10]-|-/19-----------------------------|
|------------------------|---------------------------------|
|------------------------|---------------------------------|
|------------------------|---------------------------------|
|------------------------|---------------------------------|


  F#5    E5       F#5           C5
       PM    PM---------------|
    E  S  E  S  S S S S S S S S   E
|------------------------------------|
|------------------------------------|
|------------------------------------|
|---------------------------------5--|
|---4-----2-----------------------3--|
|---2--2--0--0--3-2-2-2-2-2-2-2------|
|
|   E.    E.    H                +E
|-/19----18--------------------------|
|--------------19---------------(19)-|
|------------------------------------|
|------------------------------------|
|------------------------------------|
|------------------------------------|


  F#5           E5               F#5               D5
              PM          PM---------------------|
   E          S E         S   S  S  S    S S S S S E
|----------------------------------------------------|
|----------------------------------------------------|
|----------------------------------------------------|
|--------------------------------------------------7-|
|--4------------2----------------------------------5-|
|--2----------2-0---------0---3--2--2----2-2-2-2-2---|
|
|  S      +E.      +E        +E     H
|-19b21==(19)r====(19)b21---(19)---24b26-------------|
|----------------------------------------------------|
|----------------------------------------------------|
|----------------------------------------------------|
|----------------------------------------------------|
|----------------------------------------------------|


  A5   G#5G5 G#5A5    F#5  E5    F#5                   G5
                         PM  PM---------------------|
    E. E. Q  E.  E.    E S E S S S  S    S  S  S  S  S  E
|-------------------|-----------------------------------------|
|-------------------|-----------------------------------------|
|-------------------|-----------------------------------------|
|-------------------|-----------------------------------------|
|---7--6--5--6---7--|--4---2----------------------------5-----|
|---5--4--3--4---5--|--2-2-0-0-3-2--2----2--2--2--2--2--3-----|
|
|   E. E. Q  E.  E.    H            E       S  S  S  S  S  S
|-[24]--------------|-21-----------24b26---21-19-21-19-17-19--|
|------9--8--9--10--|-----------------------------------------|
|-------------------|-----------------------------------------|
|-------------------|-----------------------------------------|
|-------------------|-----------------------------------------|
|-------------------|-----------------------------------------|


  F#5        E5          F#5                 C5
           PM       PM--------------------|
    E      S  E     S  S  S S  S  S  S  S  S  E
|--------------------------------------------------|
|--------------------------------------------------|
|--------------------------------------------------|
|---------------------------------------------5----|
|---4---------2-------------------------------3----|
|---2------2--0-----0--3--2-2--2--2--2--2--2-------|
|
|  +S   S  S  S  S  S  S  E    S  S  S  S  S  S  S
|-(19)-17----17------------------------------------|
|---------19----19-17-19-17---14-------------------|
|--------------------------------17-14-------------|
|--------------------------------------15-14-15----|
|-----------------------------------------------15-|
|--------------------------------------------------|


  F#5  E5    F#5            D5  A5  G#5 G5  G#5 A5
     PM  PM---------------|
   E S E S S S  S S S S S S E    E.  E.  Q   E.  E.
|-----------------------------|----------------------|
|-----------------------------|----------------------|
|-----------------------------|----------------------|
|---------------------------7-|----------------------|
|--4---2--------------------5-|--7---6---5---6---7---|
|--2-2-0-0-3-2--2-2-2-2-2-2---|--5---4---3---4---5---|
|
|  ~~~~~~~~~~~~~~~
|  H            H                E.  E.  Q   E.  E.
|-----------------------------|----------------------|
|-----------------------------|----------------------|
|-----------------------------|----------------------|
|-----------------------------|----------------------|
|-14-----------12-------------|----------------------|
|-----------------------------|-14--13--12--13--14---|


  F#5   E5       F#5           G5     F#5   E5           F#5           C5
      PM    PM---------------|            PM    PM-------------------|
   E  S  E  S  S S S S S S S S   E     E  S  E  S  S     S S S S S S S   E
|-----------------------------------|----------------------------------------|
|-----------------------------------|----------------------------------------|
|-----------------------------------|----------------------------------------|
|-----------------------------------|------------------------------------5---|
|--4-----2-----------------------5--|--4-----2---------------------------3---|
|--2--2--0--0--3-2-2-2-2-2-2-2---3--|--2--2--0--0--3-----2-2-2-2-2-2-2-------|
|
|  E.    e.    H                +E     E.    e.    H                    +E
|-------17----19---------------(19)-|-------17----19b20================(19)r-|
|-----------------------------------|----------------------------------------|
|-----------------------------------|----------------------------------------|
|-16--------------------------------|-16-------------------------------------|
|-----------------------------------|----------------------------------------|
|-----------------------------------|----------------------------------------|


  F#5     E5    F#5              D5
        PM  PM-----------------|
   E    S E S S S  S  S  S S S S E
|----------------------------------------|
|----------------------------------------|
|----------------------------------------|
|--------------------------------7-------|
|--4------2----------------------5-------|
|--2----2-0-0-3-2--2--2--2-2-2-2---------|
|
|  H               S  Q.            +S
|-19b21----------------------------------|
|-----------------17-19------------(19)--|
|----------------------------------------|
|----------------------------------------|
|----------------------------------------|
|----------------------------------------|


  A5  G#5 G5   G#5A5     A5  G#5 G5   G#5A5
   E.  E.  Q   E. E.      E.  E.  Q   E. E.
|----------------------|----------------------|
|----------------------|----------------------|
|----------------------|----------------------|
|----------------------|----------------------|
|--7---6---5---6--7----|--7---6---5---6--7----|
|--5---4---3---4--5----|--5---4---3---4--5----|
|
|          ~~~                    ~~~
|  E.  E.  H         E    E.  E.  H         E
|----------------------|----------------------|
|----------------------|----------------------|
|----------------------|-18--17--16\\----------|
|-16--15--14\\----------|----------------------|
|----------------------|----------------------|
|----------------------|----------------------|


  A5  G#5 G5   G#5A5     A5  G#5 G5  G#5 A5    F#5
   E.  E.  Q   E. E.      E.  E.  Q   E.  E.    H          H
|----------------------|---------------------|-------------------*|
|----------------------|---------------------|-------------------*|
|----------------------|---------------------|-------------------*|
|----------------------|---------------------|-------------------*|
|--7---6---5---6--7----|--7---6---5---6---7--|--4----------------*|
|--5---4---3---4--5----|--5---4---3---4---5--|--2----------------*|
|
|                                                          >
|          ~~~
|  E.  E.  H         E    E.  E.  Q   E.  E.    H         +H
|----------------------|-21--20--19--20--21--|-24b26=====(24)----*|
|-19--18--17\\----------|---------------------|-------------------*|
|----------------------|---------------------|-------------------*|
|----------------------|---------------------|-------------------*|
|----------------------|---------------------|-------------------*|
|----------------------|---------------------|-------------------*|


Duration Legend
---------------
W - whole; H - half; Q - quarter; E - 8th; S - 16th; T - 32nd; X - 64th; a - acciaccatura
+ - note tied to previous; . - note dotted; .. - note double dotted
Uncapitalized letters represent notes that are staccato (1/2 duration)
Irregular groupings are notated above the duration line
Duration letters will always appear directly above the note/fret number it represents the
duration for.  Duration letters with no fret number below them represent rests.  Multi-
bar rests are notated in the form Wxn, where n is the number of bars to rest for.  Low
melody durations appear below the staff

Tablature Legend
----------------
 h   - hammer-on
 p   - pull-off
 b   - bend
 pb  - pre-bend
 r   - bend release (if no number after the r, then release immediately)
 /\\  - slide into or out of (from/to "nowhere")
 s   - legato slide
 S   - shift slide
  - natural harmonic
[n]  - artificial harmonic
n(n) - tapped harmonic
 ~   - vibrato
 tr  - trill
 T   - tap
 TP  - trem. picking
 PM  - palm muting
\\n/  - tremolo bar dip; n = amount to dip
 \\n  - tremolo bar down
 n/  - tremolo bar up
/n\\  - tremolo bar inverted dip
 =   - hold bend; also acts as connecting device for hammers/pulls
 <>  - volume swell (louder/softer)
 x   - on rhythm slash represents muted slash
 o   - on rhythm slash represents single note slash

Misc Legend
-----------
 |  - bar
||  - double bar
||o - repeat start
o|| - repeat end
*|  - double bar (ending)
 :  - bar (freetime)
 $  - Segno
 &  - Coda
Tempo markers -  = BPM(8/16=s8/s16), where s8 = swing 8ths, s16 = swing 16ths
  development and support by
dmitry ivanov