rock
 
|tablatures   |lyrics   |discussion forums   |more tabs @ XGuitar.com

Megadeth tabs

Insomnia guitar tab

Insomnia - Megadeth

Transcribed by: IcedDeth
The Megadeth Sanctuary
http://personal.netwrx.net/kweber/index.html


Intro

  w/ heavy flange				(tape cuts out)
E----------------------------------------------------------------
B---------------------------------3--/11--11\------3-------------
G--7-7/---5--------5------5-\-4---2-------------2--2-------------
D--7-7/---5--7--5--5---5----------0-------------2--0-------------
A---------3--7--5--3----------------------------0----------------
E------------5--3------------------------------------------------



   sitar arrangement for guitar
E------------------------
B------------------------
G------------------------
D--7--8-5-7---7--8-5-7---
A--0----------0----------
E------------------------


 Verse
E------------------------------------------------------
B------------------------------------------------------
G-------------------------------------5--4-3-3-3-------
D-7-7-8-5-7---7-7-8-5-7---7-7-8-5-7---5--4-3-3-3-7-----
A-0-0-0-0-0---0-0-0-0-0---0-0-0-0-0---3--2-1-1-1-0-----
E------------------------------------------------------



 Pre-Chorus
 w/ flanger
E-----0---0---------0---0---------0---0---------0---0------------
B----------------------------------------------------------------
G----------------------------------------------------------------
D----------------------------------------------------------------
A----------------------------------------------------------------
E--5---------5-4-3---------3-4-5---------5-4-3---------5-6-7-----



E----------------------------------------------
B----------------------------------------------
G----------------------------------------------
D--9---9---------9---9---------9---9-----------
A------------------------------------5-4-3-----
E---------7-6-5---------5-6-7------------------


 Chorus
E-----------------|----------------------------
B-----------------|----------------------------
G--2---4---5---7--|--7--6--5---4--3--3-3-3-----
D--2---4---5---7--|--7--4--5---4--3--3-3-3-----
A--0---2---3---5--|--5--4--3---2--1--1-1-1-----
E-----------------|----------------------------



 Solo Riff
E-----------------------------------------------------------------------------
B-----------------------------------------------------------------------------
G-----------------------------------------------------------------------------
D-----------------------------------------------------------------------------
A-----------------------------------------------------------------------------
E--0-1-2-3-0-4-5-0-6-7-8-9-0-10-11-12/-13\-1-2-3-0-4-5-0-6-7-8-9-0-10-11-12---


E-----------------------------------------------------------------------
B-----------------------------------------------------------------------
G-----------------------------------------------------------------------
D-----------------------------------------------------------------------
A-----------------------------------------------------------------------
E--0-1-2-3-0-4-5-0-6-7-8-9-0-10-11-12-11-10-9-0-8-7-0-6-5-4-3-0-2-1-0---



 Guitar Solo
E---------------10-13--13-10-12-----------------------------------------
B--9-9-10-12-13---------------------------------12-13--13-10-12---------
G-----------------------------------------13-14-------------------------
D--------------------------------12-14-15-------------------------------
A-----------------------------------------------------------------------
E-----------------------------------------------------------------------



E-----------------------------------------------------------------------
B--------------------------------------------------15-17-18--18-15-17---
G--10--10-7-9-------------5/-7--7/-13--13-14-16-17----------------------
D--------------10--10-7-9-----------------------------------------------
A-----------------------------------------------------------------------
E-----------------------------------------------------------------------



E--------16-17-19-20-20/-20/-20/--17-17-17--------------
B--17-18--------------------------18-18-18-20-18--------
G-------------------------------------------------------
D-------------------------------------------------------
A-------------------------------------------------------
E-------------------------------------------------------



E--17--16-16--17-17--16-16-------------
B--18--17-17--18-18--17-17--17\--------
G--------------------------------------
D--------------------------------------
A--------------------------------------
E--------------------------------------
  development and support by
dmitry ivanov