rock
 
|tablatures   |lyrics   |discussion forums   |more tabs @ XGuitar.com

Megadeth tabs

Insomnia bass tab

Artist: Megadeth
Song: Insomnia
Album: Risk
Bassist: David Ellefson

intro
|------------------------|------------------------|------------------------|
|-----------__-----------|-----------__-----------|-----------__-----------|
|------------------------|------------------------|------------------------|
|------------------------|------------------------|------------------------|

 1st verse
|------------------------|------------------------|------------------------|
|o-----------------------|------------------------|------------------------|
|o-----------------------|-----------%------------|-----------%------------|
|-5---5-3--5----3--5--3--|------------------------|------------------------|

  ______________________   _______________________
 / 1,2,3                \\ / 4
|------------------------|------------------------|
|-----------------------o|------------------------|
|-3--3--3--2--1--1--1--0o|-3--3--3--2--1--1--1----|
|------------------------|------------------------|

 pre-chorus               chorus
|------------------------|------------------------|------------------------|
|-----------__-----------|o-----------------------|------------------------|
|------------------------|o-----------------------|------------------------|
|------------------------|-5---5-3--5----3--5--3--|-7---7-5--7----5--7--5--|


|------------------------|------------------------|------------------------|
|------------------------|------------------------|------------------------|
|------------------------|-5---5----5----------3--|------------------------|
|-8---8-7--8----8--7--5--|-------8-------3--5-----|-5---5-3--5----3--5--3--|
                           _______________________________________________
                          / 1                                             \\
|------------------------|------------------------|------------------------|
|------------------------|------------------------|------------------------|
|------------------------|------------------------|-5---5----5---5h7-5-----|
|-7---7-5--7----5--7--5--|-8---8-7--8----7--8--5--|-------8-------------8--|
  _______________________
 / 2                                                                To Coda
|------------------------|------------------------|------------------------|
|------------------------|------------------------|------------------------|
|-5---5----5-------5-----|-5----------------------|------------------------|
|-------8-------8-----8--|----------9---8\\--------|-7--6-----6---6--6---6--|


|------------------------|------------------------|------------------------|
|o-----------------------|------------------------|------------------------|
|o-----------------------|-----------%------------|-----------%------------|
|-5---5-3--5----3--5--3--|------------------------|------------------------|


|------------------------|
|-----------------------o|
|-3--3--3--2--1--1--1--0o|
|------------------------|

 2nd verse
|------------------------|------------------------|------------------------|
|o-----------------------|------------------------|------------------------|
|o-----------------------|-----------%------------|-----------%------------|
|-5---5-3--5----3--5--3--|------------------------|------------------------|
  ______________________   _______________________
 / 1                    \\ / 2
|------------------------|------------------------|
|-----------------------o|------------------------|
|-3--3--3--2--1--1--1--0o|-3--3--3--2--1--0--0----|
|------------------------|------------------------|

 Coda
|------------------------|------------------------|------------------------|
|------------------------|------------------------|------------------------|
|------------------------|------------------------|------------------------|
|-5----------------------|-------------------(5)/-|(5)/17------------------|


|------------------------|
|------------------------|
|------------------------|
|---------(17)\\----------|

 guitar solo
|------------------------|------------------------|------------------------|
|o-----------------------|------------------------|------------------------|
|o-----------------------|------------------------|------------------------|
|-0--1--2--3--0--4--5--0-|-6--7--8--9--0-10-11-12~|~-1--2--3--0--4--5--0---|


|------------------------|------------------------|------------------------|
|------------------------|------------------------|------------------------|
|------------------------|------------------------|------------------------|
|-6--7--8--9--0-10-11-12-|-0--1--2--3--0--4--5--0-|-6--7--8--9--0-10-11-12~|
                           ______________________   _______________________
                          / 1                    \\ / 2
|------------------------|------------------------|------------------------|
|------------------------|-----------------------o|------------------------|
|------------------------|-----------------------o|------------------------|
|~-11--10--9--0--8--7--0-|-6--5--4--3--0--2--1--0-|-6--5--4--3--0--2--1--0-|

 chorus
|------------------------|------------------------|------------------------|
|-----------__-----------|------------------------|------------------------|
|------------------------|------------------------|------------------------|
|------------------------|-5---5-3--5----3--5--3--|-7---7-5--7----5--7--5--|


|------------------------|------------------------|------------------------|
|------------------------|------------------------|------------------------|
|------------------------|-5---5----5---5h7-5-----|------------------------|
|-8---8-7--8----8--7--5--|-------8-------------8--|-5---5-3--5----3--5--3--|


|------------------------|------------------------|------------------------|
|------------------------|------------------------|------------------------|
|------------------------|-5---5----5-------5-----|-5----------------------|
|-7---7-5--7----5--7--5--|-------8-------8-----8--|----------9--8\\---------|

                          outro                                play 4 times
|------------------------|------------------------|------------------------|
|------------------------|o-----------------------|-----------------------o|
|------------------------|o-----------------------|-----------%-----------o|
|-7--6-----6---6--6---6--|-5---5-3--5-------------|------------------------|


|------------------------|------------------------|------------------------|
|------------------------|------------------------|------------------------|
|------------------------|-----------%------------|-----------%------------|
|-5---5-3--5----3--5--3--|------------------------|------------------------|


|------------------------|------------------------|------------------------|
|------------------------|------------------------|-----------------------o|
|-3--3--3--2--1--1--1--0-|------------------------|-3--3--3--2--1--1--1--0o|
|------------------------|-5---5-3--5----3--5--3--|------------------------|


|------------------------|------------------------|
|-----------__-----------|-----------__-----------|
|------------------------|------------------------|
|------------------------|------------------------|
  development and support by
dmitry ivanov