rock
 
|tablatures   |lyrics   |discussion forums   |more tabs @ XGuitar.com

Megadeth tabs

In My Darkest Hour guitar tab

IN MY DARKEST HOUR
[Megadeth - So Far, So Good... So What?]
Transcribed by Marcel Molenaar, corrections by Michael James - 07/20/98


Standard Tuning

Intro :   
                                                                       play 2x
e||------------0-----|---------0-------|-----------------|------------------||
B||o-------------0---|-----------0-----|-----------------|-----------------o||
G||--------7-------7-|-----7-----------|-(0)-------------|-(0)--------------||
D||------5---5-------|---5---5---------|-----------------|------------------||
A||o---9-------------|-9---------------|-----------------|-----------------o||
E||--0---------------|-----------------|-----------------|------------------||
 ||                                                                         ||
e||------------------|-----------------|-----------------|------------------||
B||o-----------------|-----------------|-----------------|-----------------o||
G||------------------|-----------------|-----------------|------------------||
D||--9---------------|-(9)-------------|-----4---2-------|-------------4----||
A||o-7---------------|-(7)-------------|---5---5---5-2---|---------2-5---5-o||
E||--0---------------|-(0)---------0-0-|-0-------------5-|-3-2-3-5----------||

                                                                      play 2x
  e|-----------0-----|---------5-------|---------6--------|---------5-------|
  B|-------------0---|-------3---3-----|-------7---7------|-------3---3-----|
  G|-------7-------7-|-----5-------5---|-----6-------6----|-----5-------5---|
  D|-----5---5-------|---5-------------|---7--------------|---5-------------|
  A|---9-------------|-3-------------3-|-4-------------4--|-3---------------|
  E|-0---------------|-----------------|------------------|-----------------|
   |                                                                        |
   |   *: second time play low E5 (0 at E, 2 at A)                          |
  e|-----------------|-----------------|------------------|-----------------|
  B|-----------------|-----------------|------------------|-----------------|
  G|--*--------------|-----------------|------------------|-----------------|
  D|-9---------------|-5---------------|-7----------------|-5-------2-------|
  A|-7-------------2-|-3-------------3-|-4--------------4-|-3-----3---5-3-2-|
  E|-0---------------|-----------------|------------------|-----------------|




from this point play triplets

Guitars 1&2
                    play 4x                   Git 1           play 4x
e||---------------------||-------------------|-321-0-------------||
B||o-------------------o||o------------------|------43-210------o||
G||---------------------||-------------------|-0-----------321---||
D||---------------------||-------------------|--43-210-----------||
A||o--2-------2--------o||o--2-------5-------|---------432-10---o||
E||---0---000-0---000---||---0---000-3---333-|---------------4---||

e||-------------------|-----------------|----|----|-----------------|
B||o------------------|-----------------|----|----|-----------------|
G||-------------------|-----------------|----|----|-----------------|
D||-------------------|-5---------------|----%----|-----------------|
A||o--2-------2-----2-|-3---333-3---32--|----|----|-2-------2-----6-|
E||---0---000-0---03--|---------------3-|----|----|-0---000-0---03--|

                                                      play 2x
   e|-----------------|-----------------|-------------------||
   B|-----------------|-----------------|-------------------||
   G|-----------------|-----------------|------------------o||
   D|-7-------7-------|-4-------4-------|---------4--------o||
   A|-5---555-5-----5-|-2---222-2-------|-5-----0-2---2-----||
   E|-------------03--|-------------002-|-3---33-------32---||

                                                 play 2x
e||-------------------|------------------------------||
B||-------------------|------------------------------||
G||o------------------|--------------------h-p-------||
D||o------------------|-5----------5---4--2-4-2-----o||
A||---2-------2-----2-|-3----3-3-3---3-----------3--o||
E||---0---000-0---03--|------------------------------||

e|------------------|----------------------------|-----|-----------------|
B|------------------|----------------------------|-----|-----------------|
G|------------------|--------------------h-p-----|-----|-----------------|
D|------------------|------------9---7--5-7-5----|--%--|-----------------|
A|--7-------7-------|--------------7-----------7-|-----|-555-555-555-555-|
E|--5---555-5---585-|-7----7-7-7-----------------|-----|-----------------|

e|-----------------------|
B|-----------------------|
G|-----------------------|
D|----------7------------|
A|--555-555-5---8---7----|
E|--------------6---5----|

riff 4
                                                                       play 2x
e||------------------|-----------------|-----------------|------------------||
B||------------------|-----------------|-----------------|------------------||
G||o-----------------|-----------------|-----------------|-----------------o||
D||o-----------------|-5-------5-------|-7-------7-------|-----------------o||
A||--2-------------2-|-3---333-3---333-|-4---444-4---444-|-3---333-3---32---||
E||--0---000-0---03--|-----------------|-----------------|---------------3--||

                                                        play 4x
e||-----------------------------|---------------------------||
B||-----------------------------|---------------------------||
G||o----------------------------|--------------------------o||
D||o----------------------------|--------------------------o||
A||----------------5------------|-------5-------8---7---5---||
E||---0-00-0-3-5-6---6-5-0-00-0-|-3-5-6---6-5---6---5---3---||


play riff A 4 times

                                                     ||=1================
e||----------------------|----------------------------|-----------------|
B||----------------------|----------------------------|-----------------|
G||o---------------------|--------------------h-p-----|-----------------|
D||o---------------------|-5----------5---4--2-4-2----|-----------------|
A||---2----------------2-|-3--------3---3-----------3-|-2-------------2-|
E||---0------------------|----------------------------|-0---000-000-03--|

=========================||=2=================||
e|-----------------------||----------|-----------------|---------------------|
B|-----------------------||----------|-----------------|---------------------|
G|--------------h-p------||----------|-----------------|---------------------|
D|-5-------5-4-2-4-2----o||-7--------|-----------------|---------7-----------|
A|-3---333--3--------3--o||-4--------|-555-555-555-555-|-555-555-5---8---7---|
E|-----------------------||----------|-----------------|-------------6---5---|

end tripletpart

faster

  Guitar 1                                             play 2x
e||--------------|------------|------------|--------------||
B||--------------|------------|------------|--------------||
G||o-------------|------------|------------|-------------o||
D||o-------------|------------|------------|-------------o||
A||---2--2-------|-3--3-------|-4--4-------|-5--5---------||
E||---0--0--r----|-1--1--r----|-2--2--r----|-3--3--r------||
 |                                                         |
 |Guitar 2                                                 |
e||-------------------------------|------|------|---------||
B||-------------------------------|------|------|---------||
G||o-------------------h-h-p-p----|------|------|--------o||
D||o---------------h--0-1-2-1-0---|---%--|---%--|---%----o||
A||---2--------2--3-4-----------4-|------|------|---------||
E||-------------------------------|------|------|---------||

        *:play chord first time                                       play 4x
e||-------------------|----------------|----------------|------------------||
B||-------------------|----------------|----------------|------------------||
G||o------------------|----------------|----------------|-----------------o||
D||o----*-------------|----------------|----------------|-----------------o||
A||---(2)-----------3-|(3)-----------4-|(4)-----------5-|(5)-----------2---||
E||---(0)-0-0-0-0-0-1-|(1)-1-1-1-1-1-2-|(2)-2-2-2-2-2-3-|(3)-3-3-3-3-3-0---||

e||-------------------|----------------|----------------|----------------|
B||-------------------|----------------|----------------|----------------|
G||-------------------|----------------|----------------|----------------|
D||-------------4---5-|(5)-----------2-|(2)-------5---4-|(4)-----------9-|
A||---(2)-------2---3-|(3)-3-3-3-2-1-0-|(0)-0-0-0-3---2-|(2)-2-2-2-3-5-7-|
E||---(0)-0-0-0-------|----------------|----------------|----------------|

                                                          *:last time play A5
                                                                  play 4x
e|----------------|----------------|----------------|-------------------||
B|----------------|----------------|----------------|-------------------||
G|----------------|----------------|----------------|-------------------||
D|(9)-----------5-|(5)-----------2-|(2)-------5---4-|(4)------------*---||
A|(7)-7-7-7-6-5-3-|(3)-3-3-3-2-1-0-|(0)-0-0-0-3---2-|(2)-2-2-2-----2----||
E|----------------|----------------|----------------|----------3-2-0----||

       *:play chord first time

e||--------------------|------------------|------------------|
B||--------------------|------------------|------------------|
G||----*---------------|------------------|------------------|
D||--(2)-------------3-|(3)-------------5-|(5)------------10-|
A||--(0)-0-0-0-0-0-0-1-|(1)-1-1-1-1-1-1-3-|(3)-3-3-3-3-3-3-8-|
E||--------------------|------------------|------------------|

                    play 8x
e|-----------------------|| 
B|-----------------------|| 
G|-------------------*---||   *:last time play E5
D|-(10)-----9-------2----||
A|-( 8)-0-0-7---0-0-0----||
E|-----------------------||

e||--------------------|------------------|------------------|
B||--------------------|------------------|------------------|
G||--------------------|------------------|------------------|
D||o-------------------|------------------|------------------|
A||o-(2)-------------3-|(3)-------------4-|(4)-------------5-|
E||--(0)-0-0-0-0-0-0-1-|(1)-1-1-1-1-1-1-2-|(2)-2-2-2-2-2-2-3-|
 

 |=1,2=================||=3===============
e|---------------------||------------------|------------------|
B|---------------------||------------------|------------------|
G|---------------------||------------------|------------------|
D|---------------------||------------------|------------------|
A|-(5)-------------2--o||(5)-------------6-|(6)-------------7-|
E|-(3)-3-3-3-3-3-3-0---||(3)-3-3-3-3-3-3-4-|(4)-4-4-4-4-4-4-5-|

e|-------------------|------------------|------------------|
B|-------------------|------------------|------------------|
G|-------------------|------------------|------------------|
D|-------------------|------------------|------------------|
A|-(7)-------------8-|(8)-------------9-|(9)-------------2-|
E|-(5)-5-5-5-5-5-5-6-|(6)-6-6-6-6-6-6-7-|(7)-7-7-7-0-3-5-0-|


play intro 3 times   


  free time
e|--------|
B|--------|
G|--------|
D|-9------|
A|-7------|
E|-0------|
  development and support by
dmitry ivanov