rock
 
|tablatures   |lyrics   |discussion forums   |more tabs @ XGuitar.com

Megadeth tabs

Ill Get Even guitar tab

I'LL GET EVEN
[Megadeth - Cryptic Writings]
Transcribed by Christopher Heer & Michael James - 07/20/98
Five Magics - http://www.nebula.on.ca/heer/fivemagics/index.html


Standard Tuning

Verse
|-0---------------0----------
|-3---------3--------2-------
|-4------------------2-------
|-2-----2h4---4/5----2-------
|--------------------0-------
|----------------------------

Pre-Chorus
|-0-0-0-0-0-0-0-0-0-0-0-0--0--0--0--0-
|-5-5-5-5\3-3-3-3/8-8-8-8/10-10-10-10-
|-------------------------------------
|-------------------------------------
|-------------------------------------
|-------------------------------------

Chorus
|----------------------------------
|----------------------------------
|----------------------------------
|-----2-------2--------2-------2---
|----------------------------------
|-0-----0-2-----2-3-------3-2----2-

Interlude
|-----------------------------------------
|-----------------------------------------
|--------9--------------------9-----------
|-9-9---999--9-5-7-45--9-9---999--9-9-987-
|-9-9---979--9-5-7-45--9-9---979--9-9-987-
|-7-7---7-7--7-3-5-23--7-7---7-7--7-7-765-

Bridge
|-------------------------------------------------------------
|-------------------------------------------------------------
|-------------------------------------------------------------
|-----------------------------------7-------7-------7---------
|-----7-------7-----(5)h7-5-----------------------------------
|-0-------0-------0---------7-6-5-------5-------5-----6-5-6-5-

|---------------------------------------------------------------
|---------------------------------------------------------------
|-------------------------------------4-------4-------4---------
|-----4-------4-------(2)h4-2-----------------------------------
|-----------------------------4-3-2-------2-------2-----3-2-3-2-
|-2-------2-------2---------------------------------------------

End Fill
|----------------
|----------------
|-2--2--2--2-222-
|-2--2--2--2-222-
|-0--0--0--0-000-
|----------------


  development and support by
dmitry ivanov