rock
 
|tablatures   |lyrics   |discussion forums   |more tabs @ XGuitar.com

Megadeth tabs

Ill Be There guitar tab

I'll Be There

Megadeth - Risk

Transcribed by the people at The Megadeth Sanctuary
http://personal.netwrx.net/kweber/index.html
kweber@netwrx.net



played like double picking rapidly
E-----------
B-----------
G----9------
D----9------
A----7------
E-----------

E------------0---------------------0-----------
B--------7-------7-------------7-------7-------
G----7---------------7-----5---------------5---
D--0---0---0---0---0-----0---0---0---0---0-----
A----------------------------------------------
E----------------------------------------------


E------------0--------------------0----------------0-------
B--------6-------6------------6-------6--------6-------6---
G----3---------------3----3----------------3---------------
D--0---0---0---0---0----0---0---0---0----0---0---0---0-----
A----------------------------------------------------------
E----------------------------------------------------------



E--------------------------
B--------------------------
G--9--9--9--9--9--9--9-----
D--9--9--9--9--9--9--9-----
A--7--7--7--7--7--7--7-----
E--------------------------



chorus
E--------------------------------------------------
B--------------------------------------------------
G--------------------------------------------------
D--2-----------------------------------------2-----
A--0--2-3--5--3-2----3----3--2-3-5--3-2----3-0-----
E-----------------3----2--1-------------3---------


E--------------------------------------------------
B--------------------------------------------------
G--------------------------------------------------
D--------------------------------------------------
A--0--2-3--5--3-2----3----3--2-3-7--5-3-5--3-2-----
E-----------------3----2--1--------------------3---




 (oh, oh, oh, oh, oh, oh, I'll be there)
E----------------------
B----------------------
G---7----5----3----5---
D---7----5----3----5---
A---5----3----1----3---
E----------------------


  development and support by
dmitry ivanov